  0
SECTION
  2
HEADER
  9
$ACADVER
  1
AC1015
  9
$ACADMAINTVER
 70
     6
  9
$DWGCODEPAGE
  3
ANSI_1252
  9
$INSBASE
 10
0.0
 20
0.0
 30
0.0
  9
$EXTMIN
 10
-25.6998128782
 20
-36.39004084
 30
0.0
  9
$EXTMAX
 10
9.5591288278
 20
26.0729619658
 30
0.0
  9
$LIMMIN
 10
0.0
 20
0.0
  9
$LIMMAX
 10
420.0
 20
297.0
  9
$ORTHOMODE
 70
     0
  9
$REGENMODE
 70
     1
  9
$FILLMODE
 70
     1
  9
$QTEXTMODE
 70
     0
  9
$MIRRTEXT
 70
     1
  9
$LTSCALE
 40
1.0
  9
$ATTMODE
 70
     1
  9
$TEXTSIZE
 40
3.5
  9
$TRACEWID
 40
1.0
  9
$TEXTSTYLE
  7
Standard
  9
$CLAYER
  8
0
  9
$CELTYPE
  6
ByLayer
  9
$CECOLOR
 62
   256
  9
$CELTSCALE
 40
1.0
  9
$DISPSILH
 70
     0
  9
$DIMSCALE
 40
1.0
  9
$DIMASZ
 40
3.302
  9
$DIMEXO
 40
1.0
  9
$DIMDLI
 40
3.75
  9
$DIMRND
 40
0.0
  9
$DIMDLE
 40
0.0
  9
$DIMEXE
 40
1.0
  9
$DIMTP
 40
0.0
  9
$DIMTM
 40
0.0
  9
$DIMTXT
 40
3.5
  9
$DIMCEN
 40
2.5
  9
$DIMTSZ
 40
0.0
  9
$DIMTOL
 70
     0
  9
$DIMLIM
 70
     0
  9
$DIMTIH
 70
     1
  9
$DIMTOH
 70
     1
  9
$DIMSE1
 70
     0
  9
$DIMSE2
 70
     0
  9
$DIMTAD
 70
     1
  9
$DIMZIN
 70
     1
  9
$DIMBLK
  1

  9
$DIMASO
 70
     1
  9
$DIMSHO
 70
     1
  9
$DIMPOST
  1

  9
$DIMAPOST
  1

  9
$DIMALT
 70
     0
  9
$DIMALTD
 70
     3
  9
$DIMALTF
 40
0.0393700787
  9
$DIMLFAC
 40
1.0
  9
$DIMTOFL
 70
     1
  9
$DIMTVP
 40
0.0
  9
$DIMTIX
 70
     0
  9
$DIMSOXD
 70
     0
  9
$DIMSAH
 70
     0
  9
$DIMBLK1
  1

  9
$DIMBLK2
  1

  9
$DIMSTYLE
  2
ISO-25
  9
$DIMCLRD
 70
     0
  9
$DIMCLRE
 70
     0
  9
$DIMCLRT
 70
     0
  9
$DIMTFAC
 40
1.0
  9
$DIMGAP
 40
1.524
  9
$DIMJUST
 70
     0
  9
$DIMSD1
 70
     0
  9
$DIMSD2
 70
     0
  9
$DIMTOLJ
 70
     0
  9
$DIMTZIN
 70
     1
  9
$DIMALTZ
 70
     0
  9
$DIMALTTZ
 70
     0
  9
$DIMUPT
 70
     0
  9
$DIMDEC
 70
     2
  9
$DIMTDEC
 70
     2
  9
$DIMALTU
 70
     2
  9
$DIMALTTD
 70
     3
  9
$DIMTXSTY
  7
Standard
  9
$DIMAUNIT
 70
     0
  9
$DIMADEC
 70
     2
  9
$DIMALTRND
 40
0.0
  9
$DIMAZIN
 70
     0
  9
$DIMDSEP
 70
    44
  9
$DIMATFIT
 70
     3
  9
$DIMFRAC
 70
     0
  9
$DIMLDRBLK
  1

  9
$DIMLUNIT
 70
     2
  9
$DIMLWD
 70
    -2
  9
$DIMLWE
 70
    -2
  9
$DIMTMOVE
 70
     0
  9
$LUNITS
 70
     2
  9
$LUPREC
 70
     2
  9
$SKETCHINC
 40
1.0
  9
$FILLETRAD
 40
10.0
  9
$AUNITS
 70
     0
  9
$AUPREC
 70
     2
  9
$MENU
  1
.
  9
$ELEVATION
 40
0.0
  9
$PELEVATION
 40
0.0
  9
$THICKNESS
 40
0.0
  9
$LIMCHECK
 70
     0
  9
$CHAMFERA
 40
0.0
  9
$CHAMFERB
 40
0.0
  9
$CHAMFERC
 40
0.0
  9
$CHAMFERD
 40
0.0
  9
$SKPOLY
 70
     0
  9
$TDCREATE
 40
2458862.405747234
  9
$TDUCREATE
 40
2458862.405747234
  9
$TDUPDATE
 40
2458862.405781528
  9
$TDUUPDATE
 40
2458862.405781528
  9
$TDINDWG
 40
0.0000000116
  9
$TDUSRTIMER
 40
0.0000000116
  9
$USRTIMER
 70
     1
  9
$ANGBASE
 50
0.0
  9
$ANGDIR
 70
     0
  9
$PDMODE
 70
     0
  9
$PDSIZE
 40
-1.0
  9
$PLINEWID
 40
0.0
  9
$SPLFRAME
 70
     0
  9
$SPLINETYPE
 70
     6
  9
$SPLINESEGS
 70
     8
  9
$HANDSEED
  5
4A2
  9
$SURFTAB1
 70
     6
  9
$SURFTAB2
 70
     6
  9
$SURFTYPE
 70
     6
  9
$SURFU
 70
     6
  9
$SURFV
 70
     6
  9
$UCSBASE
  2

  9
$UCSNAME
  2

  9
$UCSORG
 10
0.0
 20
0.0
 30
0.0
  9
$UCSXDIR
 10
1.0
 20
0.0
 30
0.0
  9
$UCSYDIR
 10
0.0
 20
1.0
 30
0.0
  9
$UCSORTHOREF
  2

  9
$UCSORTHOVIEW
 70
     0
  9
$UCSORGTOP
 10
0.0
 20
0.0
 30
0.0
  9
$UCSORGBOTTOM
 10
0.0
 20
0.0
 30
0.0
  9
$UCSORGLEFT
 10
0.0
 20
0.0
 30
0.0
  9
$UCSORGRIGHT
 10
0.0
 20
0.0
 30
0.0
  9
$UCSORGFRONT
 10
0.0
 20
0.0
 30
0.0
  9
$UCSORGBACK
 10
0.0
 20
0.0
 30
0.0
  9
$PUCSBASE
  2

  9
$PUCSNAME
  2

  9
$PUCSORG
 10
0.0
 20
0.0
 30
0.0
  9
$PUCSXDIR
 10
1.0
 20
0.0
 30
0.0
  9
$PUCSYDIR
 10
0.0
 20
1.0
 30
0.0
  9
$PUCSORTHOREF
  2

  9
$PUCSORTHOVIEW
 70
     0
  9
$PUCSORGTOP
 10
0.0
 20
0.0
 30
0.0
  9
$PUCSORGBOTTOM
 10
0.0
 20
0.0
 30
0.0
  9
$PUCSORGLEFT
 10
0.0
 20
0.0
 30
0.0
  9
$PUCSORGRIGHT
 10
0.0
 20
0.0
 30
0.0
  9
$PUCSORGFRONT
 10
0.0
 20
0.0
 30
0.0
  9
$PUCSORGBACK
 10
0.0
 20
0.0
 30
0.0
  9
$USERI1
 70
     0
  9
$USERI2
 70
     0
  9
$USERI3
 70
     0
  9
$USERI4
 70
     0
  9
$USERI5
 70
     0
  9
$USERR1
 40
0.0
  9
$USERR2
 40
0.0
  9
$USERR3
 40
0.0
  9
$USERR4
 40
0.0
  9
$USERR5
 40
0.0
  9
$WORLDVIEW
 70
     1
  9
$SHADEDGE
 70
     3
  9
$SHADEDIF
 70
    70
  9
$TILEMODE
 70
     1
  9
$MAXACTVP
 70
    64
  9
$PINSBASE
 10
0.0
 20
0.0
 30
0.0
  9
$PLIMCHECK
 70
     0
  9
$PEXTMIN
 10
-79.930222093
 20
-26.893953331
 30
0.0
  9
$PEXTMAX
 10
79.9615659287
 20
0.0
 30
0.0
  9
$PLIMMIN
 10
-92.373162795
 20
-31.5600560943
  9
$PLIMMAX
 10
92.4045066307
 20
99.0908212775
  9
$UNITMODE
 70
     0
  9
$VISRETAIN
 70
     1
  9
$PLINEGEN
 70
     0
  9
$PSLTSCALE
 70
     1
  9
$TREEDEPTH
 70
  3020
  9
$CMLSTYLE
  2
Standard
  9
$CMLJUST
 70
     0
  9
$CMLSCALE
 40
20.0
  9
$PROXYGRAPHICS
 70
     1
  9
$MEASUREMENT
 70
     1
  9
$CELWEIGHT
370
    -1
  9
$ENDCAPS
280
     0
  9
$JOINSTYLE
280
     0
  9
$LWDISPLAY
290
     1
  9
$INSUNITS
 70
     4
  9
$HYPERLINKBASE
  1

  9
$STYLESHEET
  1

  9
$XEDIT
290
     1
  9
$CEPSNTYPE
380
     0
  9
$PSTYLEMODE
290
     1
  9
$FINGERPRINTGUID
  2
{d719433c-7b78-4111-a020-2797c057dc24}
  9
$VERSIONGUID
  2
{FAEB1C32-E019-11D5-929B-00C0DF256EC4}
  9
$EXTNAMES
290
     1
  9
$PSVPSCALE
 40
0.0
  9
$OLESTARTUP
290
     0
  0
ENDSEC
  0
SECTION
  2
CLASSES
  0
CLASS
  1
ACDBDICTIONARYWDFLT
  2
AcDbDictionaryWithDefault
  3
ObjectDBX Classes
 90
        0
280
     0
281
     0
  0
CLASS
  1
VISUALSTYLE
  2
AcDbVisualStyle
  3
ObjectDBX Classes
 90
     4095
280
     0
281
     0
  0
CLASS
  1
MATERIAL
  2
AcDbMaterial
  3
ObjectDBX Classes
 90
     1153
280
     0
281
     0
  0
CLASS
  1
SCALE
  2
AcDbScale
  3
ObjectDBX Classes
 90
     1153
280
     0
281
     0
  0
CLASS
  1
TABLESTYLE
  2
AcDbTableStyle
  3
ObjectDBX Classes
 90
     4095
280
     0
281
     0
  0
CLASS
  1
MLEADERSTYLE
  2
AcDbMLeaderStyle
  3
ACDB_MLEADERSTYLE_CLASS
 90
     4095
280
     0
281
     0
  0
CLASS
  1
SUN
  2
AcDbSun
  3
SCENEOE
 90
     1153
280
     0
281
     0
  0
CLASS
  1
ACDBPLACEHOLDER
  2
AcDbPlaceHolder
  3
ObjectDBX Classes
 90
        0
280
     0
281
     0
  0
CLASS
  1
LAYOUT
  2
AcDbLayout
  3
ObjectDBX Classes
 90
        0
280
     0
281
     0
  0
ENDSEC
  0
SECTION
  2
TABLES
  0
TABLE
  2
VPORT
  5
8
330
0
100
AcDbSymbolTable
 70
     1
  0
VPORT
  5
29
330
8
100
AcDbSymbolTableRecord
100
AcDbViewportTableRecord
  2
*Active
 70
     0
 10
0.0
 20
0.0
 11
1.0
 21
1.0
 12
-8.0703420252
 22
-5.1585394371
 13
0.0
 23
0.0
 14
10.0
 24
10.0
 15
10.0
 25
10.0
 16
0.0
 26
0.0
 36
1.0
 17
0.0
 27
0.0
 37
0.0
 40
63.7122628619
 41
0.5644772125
 42
50.0
 43
0.0
 44
0.0
 50
0.0
 51
0.0
 71
     0
 72
   100
 73
     1
 74
     3
 75
     0
 76
     0
 77
     0
 78
     0
281
     0
 65
     1
110
0.0
120
0.0
130
0.0
111
1.0
121
0.0
131
0.0
112
0.0
122
1.0
132
0.0
 79
     0
146
0.0
  0
ENDTAB
  0
TABLE
  2
LTYPE
  5
5
330
0
100
AcDbSymbolTable
 70
     6
  0
LTYPE
  5
14
330
5
100
AcDbSymbolTableRecord
100
AcDbLinetypeTableRecord
  2
ByBlock
 70
     0
  3

 72
    65
 73
     0
 40
0.0
  0
LTYPE
  5
15
330
5
100
AcDbSymbolTableRecord
100
AcDbLinetypeTableRecord
  2
ByLayer
 70
     0
  3

 72
    65
 73
     0
 40
0.0
  0
LTYPE
  5
16
330
5
100
AcDbSymbolTableRecord
100
AcDbLinetypeTableRecord
  2
Continuous
 70
     0
  3
Solid line
 72
    65
 73
     0
 40
0.0
  0
LTYPE
  5
6E
330
5
100
AcDbSymbolTableRecord
100
AcDbLinetypeTableRecord
  2
HIDDEN
 70
     0
  3
Hidden __ __ __ __ __ __ __ __ __ __ __ __ __ __
 72
    65
 73
     2
 40
1.905
 49
1.27
 74
     0
 49
-0.635
 74
     0
  0
LTYPE
  5
6F
330
5
100
AcDbSymbolTableRecord
100
AcDbLinetypeTableRecord
  2
PHANTOM
 70
     0
  3
Phantom ______  __  __  ______  __  __  ______
 72
    65
 73
     6
 40
12.7
 49
6.35
 74
     0
 49
-1.27
 74
     0
 49
1.27
 74
     0
 49
-1.27
 74
     0
 49
1.27
 74
     0
 49
-1.27
 74
     0
  0
LTYPE
  5
70
330
5
100
AcDbSymbolTableRecord
100
AcDbLinetypeTableRecord
  2
CENTER
 70
     0
  3
Center ____ _ ____ _ ____ _ ____ _ ____ _ ____
 72
    65
 73
     4
 40
10.16
 49
6.35
 74
     0
 49
-1.27
 74
     0
 49
1.27
 74
     0
 49
-1.27
 74
     0
  0
LTYPE
  5
71
330
5
100
AcDbSymbolTableRecord
100
AcDbLinetypeTableRecord
  2
CENTERX2
 70
     0
  3
Center (2x) ________  __  ________  __  _____
 72
    65
 73
     4
 40
20.32
 49
12.7
 74
     0
 49
-2.54
 74
     0
 49
2.54
 74
     0
 49
-2.54
 74
     0
  0
LTYPE
  5
72
330
5
100
AcDbSymbolTableRecord
100
AcDbLinetypeTableRecord
  2
DOT2
 70
     0
  3
Dot (.5x) ........................................
 72
    65
 73
     2
 40
0.635
 49
0.0
 74
     0
 49
-0.635
 74
     0
  0
ENDTAB
  0
TABLE
  2
LAYER
  5
2
330
0
100
AcDbSymbolTable
 70
     1
  0
LAYER
  5
10
330
2
100
AcDbSymbolTableRecord
100
AcDbLayerTableRecord
  2
0
 70
     0
 62
     7
  6
Continuous
370
    -3
390
F
  0
ENDTAB
  0
TABLE
  2
STYLE
  5
3
330
0
100
AcDbSymbolTable
 70
     1
  0
STYLE
  5
11
330
3
100
AcDbSymbolTableRecord
100
AcDbTextStyleTableRecord
  2
Standard
 70
     0
 40
0.0
 41
1.0
 50
0.0
 71
     0
 42
3.5
  3
txt
  4

  0
ENDTAB
  0
TABLE
  2
VIEW
  5
6
330
0
100
AcDbSymbolTable
 70
     0
  0
ENDTAB
  0
TABLE
  2
UCS
  5
7
330
0
100
AcDbSymbolTable
 70
     0
  0
ENDTAB
  0
TABLE
  2
APPID
  5
9
330
0
100
AcDbSymbolTable
 70
     1
  0
APPID
  5
12
330
9
100
AcDbSymbolTableRecord
100
AcDbRegAppTableRecord
  2
ACAD
 70
     0
  0
ENDTAB
  0
TABLE
  2
DIMSTYLE
  5
A
330
0
100
AcDbSymbolTable
 70
     1
100
AcDbDimStyleTable
  0
DIMSTYLE
105
27
330
A
100
AcDbSymbolTableRecord
100
AcDbDimStyleTableRecord
  2
ISO-25
 70
     0
 41
2.5
 42
0.625
 43
3.75
 44
1.25
 73
     0
 74
     0
 77
     1
 78
     8
140
2.5
141
2.5
143
0.0393700787
147
0.625
171
     3
172
     1
178
     0
271
     2
272
     2
274
     3
278
    44
283
     0
284
     8
340
11
  0
ENDTAB
  0
TABLE
  2
BLOCK_RECORD
  5
1
330
0
100
AcDbSymbolTable
 70
    10
  0
BLOCK_RECORD
  5
1F
330
1
100
AcDbSymbolTableRecord
100
AcDbBlockTableRecord
  2
*Model_Space
340
22
  0
BLOCK_RECORD
  5
1B
330
1
100
AcDbSymbolTableRecord
100
AcDbBlockTableRecord
  2
*Paper_Space
340
1E
  0
BLOCK_RECORD
  5
23
330
1
100
AcDbSymbolTableRecord
100
AcDbBlockTableRecord
  2
*Paper_Space0
340
26
  0
BLOCK_RECORD
  5
170
330
1
100
AcDbSymbolTableRecord
100
AcDbBlockTableRecord
  2
*Paper_Space1
340
171
  0
BLOCK_RECORD
  5
1B7
330
1
100
AcDbSymbolTableRecord
100
AcDbBlockTableRecord
  2
*Paper_Space2
340
1B8
  0
BLOCK_RECORD
  5
1F0
330
1
100
AcDbSymbolTableRecord
100
AcDbBlockTableRecord
  2
*Paper_Space3
340
1F1
  0
BLOCK_RECORD
  5
237
330
1
100
AcDbSymbolTableRecord
100
AcDbBlockTableRecord
  2
*Paper_Space4
340
238
  0
BLOCK_RECORD
  5
290
330
1
100
AcDbSymbolTableRecord
100
AcDbBlockTableRecord
  2
*Paper_Space5
340
291
  0
BLOCK_RECORD
  5
2EF
330
1
100
AcDbSymbolTableRecord
100
AcDbBlockTableRecord
  2
*Paper_Space6
340
2F0
  0
BLOCK_RECORD
  5
34D
330
1
100
AcDbSymbolTableRecord
100
AcDbBlockTableRecord
  2
*Paper_Space7
340
34E
  0
BLOCK_RECORD
  5
3AE
330
1
100
AcDbSymbolTableRecord
100
AcDbBlockTableRecord
  2
*Paper_Space8
340
3AF
  0
BLOCK_RECORD
  5
40E
330
1
100
AcDbSymbolTableRecord
100
AcDbBlockTableRecord
  2
*Paper_Space9
340
40F
  0
ENDTAB
  0
ENDSEC
  0
SECTION
  2
BLOCKS
  0
BLOCK
  5
20
330
1F
100
AcDbEntity
  8
0
100
AcDbBlockBegin
  2
*Model_Space
 70
     0
 10
0.0
 20
0.0
 30
0.0
  3
*Model_Space
  1

  0
ENDBLK
  5
21
330
1F
100
AcDbEntity
  8
0
100
AcDbBlockEnd
  0
BLOCK
  5
1C
330
1B
100
AcDbEntity
 67
     1
  8
0
100
AcDbBlockBegin
  2
*Paper_Space
 70
     0
 10
0.0
 20
0.0
 30
0.0
  3
*Paper_Space
  1

  0
ENDBLK
  5
1D
330
1B
100
AcDbEntity
 67
     1
  8
0
100
AcDbBlockEnd
  0
BLOCK
  5
24
330
23
100
AcDbEntity
  8
0
100
AcDbBlockBegin
  2
*Paper_Space0
 70
     0
 10
0.0
 20
0.0
 30
0.0
  3
*Paper_Space0
  1

  0
SPLINE
  5
118
330
23
100
AcDbEntity
  8
0
  6
Continuous
 62
     7
370
    25
100
AcDbSpline
210
0.0
220
0.0
230
1.0
 70
     8
 71
     3
 72
     9
 73
     5
 74
     0
 42
0.000000001
 43
0.00000001
 40
0.0
 40
0.0
 40
0.0
 40
0.0
 40
0.16637122562578
 40
1.0
 40
1.0
 40
1.0
 40
1.0
 10
-49.37536207542776
 20
-14.96890690058453
 30
0.0
 10
-49.24108938839189
 20
-14.9984758661175
 30
0.0
 10
-48.43402262230408
 20
-15.17620470968255
 30
0.0
 10
-47.61456902877433
 20
-15.33807499636127
 30
0.0
 10
-46.93144893394359
 20
-15.47301472505286
 30
0.0
  0
SPLINE
  5
119
330
23
100
AcDbEntity
  8
0
  6
Continuous
 62
     7
370
    25
100
AcDbSpline
210
0.0
220
0.0
230
1.0
 70
     8
 71
     3
 72
    10
 73
     6
 74
     0
 42
0.000000001
 43
0.00000001
 40
0.0
 40
0.0
 40
0.0
 40
0.0
 40
0.1014053708274758
 40
0.5832187858893043
 40
0.9999999999999999
 40
0.9999999999999999
 40
0.9999999999999999
 40
0.9999999999999999
 10
-55.74144430416501
 20
-13.49422542459451
 30
0.0
 10
-55.53038455249316
 20
-13.54869063801697
 30
0.0
 10
-54.31650395508797
 20
-13.86193968376515
 30
0.0
 10
-52.1975353702645
 20
-14.35898888594384
 30
0.0
 10
-50.26957707736739
 20
-14.7756523475623
 30
0.0
 10
-49.37536207542776
 20
-14.96890690058453
 30
0.0
  0
SPLINE
  5
11A
330
23
100
AcDbEntity
  8
0
  6
Continuous
 62
     7
370
    25
100
AcDbSpline
210
0.0
220
0.0
230
1.0
 70
     8
 71
     3
 72
    10
 73
     6
 74
     0
 42
0.000000001
 43
0.00000001
 40
0.0
 40
0.0
 40
0.0
 40
0.0
 40
0.1368597303303159
 40
0.6200168028179323
 40
1.0
 40
1.0
 40
1.0
 40
1.0
 10
-61.96586686287559
 20
-11.80491152974503
 30
0.0
 10
-61.68792425956684
 20
-11.8877713360592
 30
0.0
 10
-60.4287585147969
 20
-12.26315182284688
 30
0.0
 10
-58.3566109228333
 20
-12.83059308020368
 30
0.0
 10
-56.54081733461872
 20
-13.29137418197926
 30
0.0
 10
-55.74144430416501
 20
-13.49422542459451
 30
0.0
  0
SPLINE
  5
11B
330
23
100
AcDbEntity
  8
0
  6
Continuous
 62
     7
370
    25
100
AcDbSpline
210
0.0
220
0.0
230
1.0
 70
     8
 71
     3
 72
    14
 73
    10
 74
     0
 42
0.000000001
 43
0.00000001
 40
0.0
 40
0.0
 40
0.0
 40
0.0
 40
0.0728733458399506
 40
0.2373556961336197
 40
0.4008171734785962
 40
0.5632799218411385
 40
0.7247726616972625
 40
0.8853269380229155
 40
1.0
 40
1.0
 40
1.0
 40
1.0
 10
-79.55937529370722
 20
-5.52340268560776
 30
0.0
 10
-79.15834349443435
 20
-5.69483065098092
 30
0.0
 10
-77.8521432535783
 20
-6.253188492094477
 30
0.0
 10
-75.5996006326361
 20
-7.166058999646236
 30
0.0
 10
-72.78725656913615
 20
-8.244013126775702
 30
0.0
 10
-69.93292742370355
 20
-9.272529319224848
 30
0.0
 10
-67.03814751041033
 20
-10.25004158875133
 30
0.0
 10
-64.38625622082353
 20
-11.09649393275863
 30
0.0
 10
-62.67772419529548
 20
-11.59655982006077
 30
0.0
 10
-61.96586686287559
 20
-11.80491152974503
 30
0.0
  0
SPLINE
  5
11D
330
23
100
AcDbEntity
  8
0
  6
Continuous
 62
     7
370
    25
100
AcDbSpline
210
0.0
220
0.0
230
1.0
 70
     8
 71
     3
 72
     9
 73
     5
 74
     0
 42
0.000000001
 43
0.00000001
 40
0.0
 40
0.0
 40
0.0
 40
0.0
 40
0.3229462937752231
 40
1.0
 40
1.0
 40
1.0
 40
1.0
 10
-45.54852596964498
 20
-15.61236010688902
 30
0.0
 10
-45.46227050931098
 20
-15.61563603863732
 30
0.0
 10
-45.19518133071818
 20
-15.62577992884892
 30
0.0
 10
-44.92926336077024
 20
-15.60623947143427
 30
0.0
 10
-44.74922261366522
 20
-15.59300953232035
 30
0.0
  0
SPLINE
  5
11E
330
23
100
AcDbEntity
  8
0
  6
Continuous
 62
     7
370
    25
100
AcDbSpline
210
0.0
220
0.0
230
1.0
 70
     8
 71
     3
 72
    10
 73
     6
 74
     0
 42
0.000000001
 43
0.00000001
 40
0.0
 40
0.0
 40
0.0
 40
0.0
 40
0.2496982511062445
 40
0.71849577544212
 40
1.0
 40
1.0
 40
1.0
 40
1.0
 10
-46.93144893394359
 20
-15.47301472505285
 30
0.0
 10
-46.82014118371178
 20
-15.49328338057325
 30
0.0
 10
-46.49985801007635
 20
-15.55160554863321
 30
0.0
 10
-46.03543097924735
 20
-15.605914059199
 30
0.0
 10
-45.68136665935621
 20
-15.6106014529336
 30
0.0
 10
-45.54852596964498
 20
-15.61236010688902
 30
0.0
  0
SPLINE
  5
134
330
23
100
AcDbEntity
  8
0
  6
Continuous
 62
     7
370
    25
100
AcDbSpline
210
0.0
220
0.0
230
1.0
 70
     8
 71
     3
 72
     8
 73
     4
 74
     0
 42
0.000000001
 43
0.00000001
 40
0.0
 40
0.0
 40
0.0
 40
0.0
 40
0.0000453377850437
 40
0.0000453377850437
 40
0.0000453377850437
 40
0.0000453377850437
 10
-79.84132562702305
 20
-5.522567827752875
 30
0.0
 10
-79.85356678571398
 20
-5.52082974124997
 30
0.0
 10
-79.86571944950127
 20
-5.517489984524675
 30
0.0
 10
-79.87740246651472
 20
-5.512694332253588
 30
0.0
  0
LWPOLYLINE
  5
139
330
23
100
AcDbEntity
  8
0
  6
Continuous
 62
     7
370
    25
100
AcDbPolyline
 90
        9
 70
   128
 43
0.0
 10
79.8083833315
 20
-5.5037436589
 10
79.8414532058
 20
-5.4965647128
 10
79.87059308
 20
-5.481132222
 10
79.8947733889
 20
-5.4579914448
 10
79.9131397976
 20
-5.4279599875
 10
79.9250433869
 20
-5.3920989168
 10
79.9300635813
 20
-5.3516752702
 10
79.928023008
 20
-5.3081172897
 10
79.9189937642
 20
-5.2629639589
  0
LWPOLYLINE
  5
144
330
23
100
AcDbEntity
  8
0
  6
Continuous
 62
     7
370
    25
100
AcDbPolyline
 90
        5
 70
   128
 43
0.0
 10
77.7364259947
 20
-5.5
 10
77.9069727562
 20
-5.5017712532
 10
77.9648876892
 20
-5.5070302988
 10
77.9083817968
 20
-5.5156146844
 10
77.8918571101
 20
-5.5170301596
  0
SPLINE
  5
146
330
23
100
AcDbEntity
  8
0
  6
Continuous
 62
     7
370
    25
100
AcDbSpline
210
0.0
220
0.0
230
1.0
 70
     8
 71
     3
 72
    14
 73
    10
 74
     0
 42
0.000000001
 43
0.00000001
 40
0.0
 40
0.0
 40
0.0
 40
0.0
 40
0.2674635727950758
 40
0.4100253031857662
 40
0.5289948192749367
 40
0.6175207543977602
 40
0.706195188682944
 40
0.8233699120090552
 40
1.0
 40
1.0
 40
1.0
 40
1.0
 10
-79.5596951730692
 20
-5.524234867913065
 30
0.0
 10
-79.56581296618093
 20
-5.521445617789059
 30
0.0
 10
-79.5751916264196
 20
-5.517169659325615
 30
0.0
 10
-79.57921510796521
 20
-5.511196101732867
 30
0.0
 10
-79.57673502852522
 20
-5.507207229780768
 30
0.0
 10
-79.56876987214015
 20
-5.504172779605653
 30
0.0
 10
-79.55591684727926
 20
-5.501911280277243
 30
0.0
 10
-79.53509520148495
 20
-5.500249580499937
 30
0.0
 10
-79.51809496207235
 20
-5.500093707813195
 30
0.0
 10
-79.50787472854432
 20
-5.5
 30
0.0
  0
LWPOLYLINE
  5
149
330
23
100
AcDbEntity
  8
0
  6
Continuous
 62
     7
370
    25
100
AcDbPolyline
 90
        4
 70
   128
 43
0.0
 10
-44.7492226137
 20
-15.5930095323
 10
-44.7498657663
 20
-15.5930045371
 10
-44.757450155
 20
-15.5854214645
 10
-44.7655990909
 20
-15.5645548837
  0
LWPOLYLINE
  5
14E
330
23
100
AcDbEntity
  8
0
  6
Continuous
 62
     8
370
    25
100
AcDbPolyline
 90
        4
 70
   128
 43
0.0
 10
-46.9314181841
 20
-15.4730207807
 10
-46.9281102568
 20
-15.4733665472
 10
-46.9109957887
 20
-15.466966488
 10
-46.8926382251
 20
-15.4476902886
  0
LINE
  5
14F
330
23
100
AcDbEntity
  8
0
  6
Continuous
 62
     7
370
    25
100
AcDbLine
 10
79.930222093
 20
-5.342673095
 30
0.0
 11
79.930222093
 21
3.3
 31
0.0
  0
LINE
  5
150
330
23
100
AcDbEntity
  8
0
  6
Continuous
 62
     7
370
    25
100
AcDbLine
 10
-79.9615659287
 20
3.3
 30
0.0
 11
-79.9615659287
 21
-5.3605838582
 31
0.0
  0
LINE
  5
151
330
23
100
AcDbEntity
  8
0
  6
Continuous
 62
     7
370
    25
100
AcDbLine
 10
-44.7492226137
 20
-15.5930095323
 30
0.0
 11
77.8918571101
 21
-5.5170301596
 31
0.0
  0
LINE
  5
152
330
23
100
AcDbEntity
  8
0
  6
Continuous
 62
     7
370
    25
100
AcDbLine
 10
-76.5468754703
 20
-3.3360392195
 30
0.0
 11
76.5468754703
 21
-3.3360392195
 31
0.0
  0
LINE
  5
153
330
23
100
AcDbEntity
  8
0
  6
Continuous
 62
     7
370
    25
100
AcDbLine
 10
-76.358103799
 20
3.5
 30
0.0
 11
-76.358103799
 21
-3.5321553546
 31
0.0
  0
LINE
  5
154
330
23
100
AcDbEntity
  8
0
  6
Continuous
 62
     7
370
    25
100
AcDbLine
 10
76.358103799
 20
-3.5321553546
 30
0.0
 11
-76.358103799
 21
-3.5321553546
 31
0.0
  0
LINE
  5
155
330
23
100
AcDbEntity
  8
0
  6
Continuous
 62
     7
370
    25
100
AcDbLine
 10
76.358103799
 20
-3.5321553546
 30
0.0
 11
76.358103799
 21
3.5
 31
0.0
  0
LINE
  5
156
330
23
100
AcDbEntity
  8
0
  6
Continuous
 62
     7
370
    25
100
AcDbLine
 10
79.930222093
 20
3.3
 30
0.0
 11
-79.9615659287
 21
3.3
 31
0.0
  0
LINE
  5
157
330
23
100
AcDbEntity
  8
0
  6
Continuous
 62
     7
370
    25
100
AcDbLine
 10
-79.7615659287
 20
3.5
 30
0.0
 11
79.730222093
 21
3.5
 31
0.0
  0
LINE
  5
158
330
23
100
AcDbEntity
  8
0
  6
Continuous
 62
     7
370
    25
100
AcDbLine
 10
-76.5468754703
 20
-3.3360392195
 30
0.0
 11
-76.5468754703
 21
3.3
 31
0.0
  0
LINE
  5
159
330
23
100
AcDbEntity
  8
0
  6
Continuous
 62
     7
370
    25
100
AcDbLine
 10
76.5468754703
 20
3.3
 30
0.0
 11
76.5468754703
 21
-3.3360392195
 31
0.0
  0
LINE
  5
15A
330
23
100
AcDbEntity
  8
0
  6
Continuous
 62
     7
370
    25
100
AcDbLine
 10
-76.358103799
 20
-3.5321553546
 30
0.0
 11
-79.841325627
 21
-5.5225678278
 31
0.0
  0
LINE
  5
15B
330
23
100
AcDbEntity
  8
0
  6
Continuous
 62
     7
370
    25
100
AcDbLine
 10
-79.9503375999
 20
-5.2808747221
 30
0.0
 11
-76.5468754703
 21
-3.3360392195
 31
0.0
  0
LINE
  5
15C
330
23
100
AcDbEntity
  8
0
  6
Continuous
 62
     7
370
    25
100
AcDbLine
 10
79.8083833315
 20
-5.5037436589
 30
0.0
 11
76.358103799
 21
-3.5321553546
 31
0.0
  0
LINE
  5
15D
330
23
100
AcDbEntity
  8
0
  6
Continuous
 62
     7
370
    25
100
AcDbLine
 10
76.5468754703
 20
-3.3360392195
 30
0.0
 11
79.9189937642
 21
-5.2629639589
 31
0.0
  0
LINE
  5
15E
330
23
100
AcDbEntity
  8
0
  6
Continuous
 62
     7
370
    25
100
AcDbLine
 10
79.9189937642
 20
-5.2629639589
 30
0.0
 11
79.9189937642
 21
3.3
 31
0.0
  0
LINE
  5
15F
330
23
100
AcDbEntity
  8
0
  6
Continuous
 62
     7
370
    25
100
AcDbLine
 10
-79.9503375999
 20
3.3
 30
0.0
 11
-79.9503375999
 21
-5.2808747221
 31
0.0
  0
LINE
  5
160
330
23
100
AcDbEntity
  8
0
  6
Continuous
 62
     7
370
    25
100
AcDbLine
 10
79.7569937465
 20
-5.5065647589
 30
0.0
 11
77.1679124443
 21
-5.5765082035
 31
0.0
  0
LINE
  5
161
330
23
100
AcDbEntity
  8
0
  6
Continuous
 62
     7
370
    25
100
AcDbLine
 10
-79.5078747285
 20
-5.5
 30
0.0
 11
77.7364259947
 21
-5.5
 31
0.0
  0
LINE
  5
162
330
23
100
AcDbEntity
  8
0
  6
Continuous
 62
     7
370
    25
100
AcDbLine
 10
-79.4240339951
 20
-5.5815553198
 30
0.0
 11
-79.841325627
 21
-5.5225678278
 31
0.0
  0
LINE
  5
163
330
23
100
AcDbEntity
  8
0
  6
Continuous
 62
     7
370
    25
100
AcDbLine
 10
-44.7655990909
 20
-15.5645548837
 30
0.0
 11
77.7364259947
 21
-5.5
 31
0.0
  0
ARC
  5
164
330
23
100
AcDbEntity
  8
0
  6
Continuous
 62
     7
370
    25
100
AcDbCircle
 10
79.730222093
 20
3.3
 30
0.0
 40
0.2000000000000028
100
AcDbArc
 50
0.0
 51
90.0
  0
ARC
  5
165
330
23
100
AcDbEntity
  8
0
  6
Continuous
 62
     7
370
    25
100
AcDbCircle
 10
-79.7615659287
 20
3.3
 30
0.0
 40
0.2000000000000188
100
AcDbArc
 50
90.0
 51
180.0
  0
ARC
  5
166
330
23
100
AcDbEntity
  8
0
  6
Continuous
 62
     7
370
    25
100
AcDbCircle
 10
-76.33868054
 20
-3.3245502934
 30
0.0
 40
0.2085116889020817
100
AcDbArc
 50
183.1585783595
 51
264.6550405143
  0
ARC
  5
167
330
23
100
AcDbEntity
  8
0
  6
Continuous
 62
     7
370
    25
100
AcDbCircle
 10
-76.3523226666
 20
3.3054565702
 30
0.0
 40
0.1946293081416843
100
AcDbArc
 50
91.7021239965
 51
181.6065381607
  0
ARC
  5
168
330
23
100
AcDbEntity
  8
0
  6
Continuous
 62
     7
370
    25
100
AcDbCircle
 10
76.33868054
 20
-3.3245502934
 30
0.0
 40
0.2085116889021263
100
AcDbArc
 50
275.3449594857
 51
356.8414216405
  0
ARC
  5
169
330
23
100
AcDbEntity
  8
0
  6
Continuous
 62
     7
370
    25
100
AcDbCircle
 10
76.3523226666
 20
3.3054565702
 30
0.0
 40
0.1946293081416862
100
AcDbArc
 50
358.3934618393
 51
88.2978760035
  0
ARC
  5
16A
330
23
100
AcDbEntity
  8
0
  6
Continuous
 62
     7
370
    25
100
AcDbCircle
 10
-79.7748145893
 20
-5.3530348748
 30
0.0
 40
0.1897772770951942
100
AcDbArc
 50
157.6516982104
 51
237.2775594881
  0
ARC
  5
16B
330
23
100
AcDbEntity
  8
0
  6
Continuous
 62
     7
370
    25
100
AcDbCircle
 10
-79.7557847962
 20
3.3054565702
 30
0.0
 40
0.1946293081416844
100
AcDbArc
 50
91.7021239965
 51
181.6065381607
  0
ARC
  5
16C
330
23
100
AcDbEntity
  8
0
  6
Continuous
 62
     7
370
    25
100
AcDbCircle
 10
79.7244409605
 20
3.3054565702
 30
0.0
 40
0.1946293081417186
100
AcDbArc
 50
358.3934618393
 51
88.2978760035
  0
ARC
  5
16D
330
23
100
AcDbEntity
  8
0
  6
Continuous
 62
     7
370
    25
100
AcDbCircle
 10
79.7335778424
 20
-4.6105463132
 30
0.0
 40
0.8963243606812765
100
AcDbArc
 50
271.4969861245
 51
274.7873629354
  0
ARC
  5
16E
330
23
100
AcDbEntity
  8
0
  6
Continuous
 62
     7
370
    25
100
AcDbCircle
 10
-15.9735707662
 20
144.3670756167
 30
0.0
 40
162.778217627155
100
AcDbArc
 50
247.026080961
 51
259.0503685478
  0
ARC
  5
16F
330
23
100
AcDbEntity
  8
0
  6
Continuous
 62
     7
370
    25
100
AcDbCircle
 10
-45.40728573
 20
-7.8283896958
 30
0.0
 40
7.762732351285932
100
AcDbArc
 50
258.96876933
 51
274.741621196
  0
VIEWPORT
  5
48E
330
23
100
AcDbEntity
  8
0
100
AcDbViewport
 10
0.0
 20
0.0
 30
0.0
 40
205.6
 41
156.0
 68
     1
 69
     1
 12
-8.0703420252
 22
-5.1585394371
 13
0.0
 23
0.0
 14
10.0
 24
10.0
 15
10.0
 25
10.0
 16
0.0
 26
0.0
 36
1.0
 17
0.0
 27
0.0
 37
0.0
 42
50.0
 43
0.0
 44
0.0
 45
63.7122628619
 50
0.0
 51
0.0
 72
   100
 90
   557152
  1

281
     0
 71
     1
 74
     0
110
0.0
120
0.0
130
0.0
111
1.0
121
0.0
131
0.0
112
0.0
122
1.0
132
0.0
 79
     0
146
0.0
  0
ENDBLK
  5
25
330
23
100
AcDbEntity
  8
0
100
AcDbBlockEnd
  0
BLOCK
  5
172
330
170
100
AcDbEntity
  8
0
100
AcDbBlockBegin
  2
*Paper_Space1
 70
     0
 10
0.0
 20
0.0
 30
0.0
  3
*Paper_Space1
  1

  0
LWPOLYLINE
  5
179
330
170
100
AcDbEntity
  8
0
  6
Continuous
 62
     7
370
    25
100
AcDbPolyline
 90
        9
 70
   128
 43
0.0
 10
3.5
 20
-9.834623697
 10
3.4961570561
 20
-9.8217340629
 10
3.4847759065
 20
-9.8093397701
 10
3.4662939225
 20
-9.7979171245
 10
3.4414213562
 20
-9.7879050919
 10
3.4111140466
 20
-9.7796884291
 10
3.3765366865
 20
-9.7735828978
 10
3.3390180644
 20
-9.7698231302
 10
3.3
 20
-9.7685536121
  0
LWPOLYLINE
  5
17F
330
170
100
AcDbEntity
  8
0
  6
Continuous
 62
     7
370
    25
100
AcDbPolyline
 90
        9
 70
   128
 43
0.0
 10
-3.5321553546
 20
-0.160776773
 10
-3.5263080711
 20
-0.1495561303
 10
-3.5137382388
 20
-0.1401177625
 10
-3.494889973
 20
-0.1327951443
 10
-3.4704292177
 20
-0.1278469974
 10
-3.4412202163
 20
-0.1254481489
 10
-3.4082949766
 20
-0.1256833546
 10
-3.372816808
 20
-0.1285443042
 10
-3.3360392195
 20
-0.1339299151
  0
LWPOLYLINE
  5
184
330
170
100
AcDbEntity
  8
0
  6
Continuous
 62
     7
370
    25
100
AcDbPolyline
 90
        9
 70
   128
 43
0.0
 10
3.5
 20
-0.2
 10
3.4961570561
 20
-0.1871103659
 10
3.4847759065
 20
-0.1747160731
 10
3.4662939225
 20
-0.1632934275
 10
3.4414213562
 20
-0.1532813949
 10
3.4111140466
 20
-0.1450647321
 10
3.3765366865
 20
-0.1389592008
 10
3.3390180644
 20
-0.1351994332
 10
3.3
 20
-0.1339299151
  0
LINE
  5
19B
330
170
100
AcDbEntity
  8
0
  6
Continuous
 62
     7
370
    25
100
AcDbLine
 10
-15.4199559824
 20
-26.893953331
 30
0.0
 11
-9.3302232764
 21
-26.893953331
 31
0.0
  0
LINE
  5
19C
330
170
100
AcDbEntity
  8
0
  6
Continuous
 62
     7
370
    25
100
AcDbLine
 10
3.3
 20
-10.1312810334
 30
0.0
 11
3.3
 21
0.0
 31
0.0
  0
LINE
  5
19D
330
170
100
AcDbEntity
  8
0
  6
Continuous
 62
     7
370
    25
100
AcDbLine
 10
-5.6737406891
 20
-10.8687034455
 30
0.0
 11
-3.5321553546
 21
-0.160776773
 31
0.0
  0
LINE
  5
19E
330
170
100
AcDbEntity
  8
0
  6
Continuous
 62
     7
370
    25
100
AcDbLine
 10
-5.2629639589
 20
-9.7685536121
 30
0.0
 11
3.3
 21
-9.7685536121
 31
0.0
  0
LINE
  5
19F
330
170
100
AcDbEntity
  8
0
  6
Continuous
 62
     7
370
    25
100
AcDbLine
 10
3.3
 20
-10.0328237943
 30
0.0
 11
-5.5065647589
 21
-10.0328237943
 31
0.0
  0
LINE
  5
1A0
330
170
100
AcDbEntity
  8
0
  6
Continuous
 62
     7
370
    25
100
AcDbLine
 10
-3.3360392195
 20
-0.1339299151
 30
0.0
 11
-5.2629639589
 21
-9.7685536121
 31
0.0
  0
LINE
  5
1A1
330
170
100
AcDbEntity
  8
0
  6
Continuous
 62
     7
370
    25
100
AcDbLine
 10
3.3
 20
-0.1339299151
 30
0.0
 11
-3.3360392195
 21
-0.1339299151
 31
0.0
  0
LINE
  5
1A2
330
170
100
AcDbEntity
  8
0
  6
Continuous
 62
     7
370
    25
100
AcDbLine
 10
3.5
 20
-0.2
 30
0.0
 11
3.5
 21
-9.9330809361
 31
0.0
  0
LINE
  5
1A3
330
170
100
AcDbEntity
  8
0
  6
Continuous
 62
     7
370
    25
100
AcDbLine
 10
-15.3936811325
 20
-26.8489557633
 30
0.0
 11
-9.297671501
 21
-26.8489557633
 31
0.0
  0
LINE
  5
1A4
330
170
100
AcDbEntity
  8
0
  6
Continuous
 62
     7
370
    25
100
AcDbLine
 10
-5.6737406891
 20
-10.8687034455
 30
0.0
 11
-15.3936811325
 21
-26.8489557633
 31
0.0
  0
LINE
  5
1A5
330
170
100
AcDbEntity
  8
0
  6
Continuous
 62
     7
370
    25
100
AcDbLine
 10
-9.297671501
 20
-26.8489557633
 30
0.0
 11
3.3
 21
-10.1312810334
 31
0.0
  0
LINE
  5
1A6
330
170
100
AcDbEntity
  8
0
  6
Continuous
 62
     7
370
    25
100
AcDbLine
 10
3.459727102
 20
-10.0534439407
 30
0.0
 11
-9.1704961739
 21
-26.8143163349
 31
0.0
  0
LINE
  5
1A7
330
170
100
AcDbEntity
  8
0
  6
Continuous
 62
     7
370
    25
100
AcDbLine
 10
-15.5908295344
 20
-26.5900195577
 30
0.0
 11
-5.5
 21
-10.0
 31
0.0
  0
LINE
  5
1A8
330
170
100
AcDbEntity
  8
0
  6
Continuous
 62
     7
370
    25
100
AcDbLine
 10
-3.3360392195
 20
-0.1339299151
 30
0.0
 11
-3.3360392195
 21
0.0
 31
0.0
  0
LINE
  5
1A9
330
170
100
AcDbEntity
  8
0
  6
Continuous
 62
     7
370
    25
100
AcDbLine
 10
-3.3360392195
 20
0.0
 30
0.0
 11
3.3
 21
0.0
 31
0.0
  0
LINE
  5
1AA
330
170
100
AcDbEntity
  8
0
  6
Continuous
 62
     8
370
    25
100
AcDbLine
 10
-15.3936811325
 20
-26.8489557633
 30
0.0
 11
-15.4199559822
 21
-26.8939533307
 31
0.0
  0
LINE
  5
1AB
330
170
100
AcDbEntity
  8
0
  6
Continuous
 62
     8
370
    25
100
AcDbLine
 10
-9.330223275
 20
-26.893953329
 30
0.0
 11
-9.297671501
 21
-26.8489557633
 31
0.0
  0
ARC
  5
1AC
330
170
100
AcDbEntity
  8
0
  6
Continuous
 62
     7
370
    25
100
AcDbCircle
 10
-15.4199559824
 20
-26.693953331
 30
0.0
 40
0.1999999999999957
100
AcDbArc
 50
148.690067526
 51
270.0
  0
ARC
  5
1AD
330
170
100
AcDbEntity
  8
0
  6
Continuous
 62
     7
370
    25
100
AcDbCircle
 10
-9.3302232764
 20
-26.693953331
 30
0.0
 40
0.2000000000000193
100
AcDbArc
 50
272.8593690677
 51
323.0
  0
ARC
  5
1AE
330
170
100
AcDbEntity
  8
0
  6
Continuous
 62
     7
370
    25
100
AcDbCircle
 10
3.3008959018
 20
-9.8337196593
 30
0.0
 40
0.1991061506017457
100
AcDbArc
 50
269.7421899595
 51
359.7398487086
  0
ARC
  5
1AF
330
170
100
AcDbEntity
  8
0
  6
Continuous
 62
     7
370
    25
100
AcDbCircle
 10
-4.804357162
 20
-10.4509114153
 30
0.0
 40
0.8221510601874698
100
AcDbArc
 50
123.9047074316
 51
148.2855789299
  0
ARC
  5
1B0
330
170
100
AcDbEntity
  8
0
  6
Continuous
 62
     7
370
    25
100
AcDbCircle
 10
3.3008959018
 20
-9.9321768984
 30
0.0
 40
0.1991061506017459
100
AcDbArc
 50
269.7421899595
 51
359.7398487086
  0
ARC
  5
1B1
330
170
100
AcDbEntity
  8
0
  6
Continuous
 62
     7
370
    25
100
AcDbCircle
 10
3.3
 20
-9.9330809361
 30
0.0
 40
0.2000000000000131
100
AcDbArc
 50
323.0
 51
360.0
  0
ARC
  5
1B2
330
170
100
AcDbEntity
  8
0
  6
Continuous
 62
     7
370
    25
100
AcDbCircle
 10
3.3031695661
 20
-9.9349811212
 30
0.0
 40
0.1963254992803774
100
AcDbArc
 50
269.0749512985
 51
322.8862003744
  0
ARC
  5
1B3
330
170
100
AcDbEntity
  8
0
  6
Continuous
 62
     7
370
    25
100
AcDbCircle
 10
-9.2945019349
 20
-26.6526558511
 30
0.0
 40
0.1963254992804074
100
AcDbArc
 50
269.0749512985
 51
322.8862003744
  0
ARC
  5
1B4
330
170
100
AcDbEntity
  8
0
  6
Continuous
 62
     7
370
    25
100
AcDbCircle
 10
-15.392633235
 20
-26.6489769198
 30
0.0
 40
0.1999815889878677
100
AcDbArc
 50
149.2815003081
 51
269.6997704708
  0
ARC
  5
1B5
330
170
100
AcDbEntity
  8
0
  6
Continuous
 62
     7
370
    25
100
AcDbCircle
 10
3.3
 20
-0.2
 30
0.0
 40
0.1999999999999984
100
AcDbArc
 50
0.0
 51
90.0
  0
ARC
  5
1B6
330
170
100
AcDbEntity
  8
0
  6
Continuous
 62
     7
370
    25
100
AcDbCircle
 10
-3.3360392195
 20
-0.2
 30
0.0
 40
0.2000000000000006
100
AcDbArc
 50
90.0
 51
168.690067526
  0
VIEWPORT
  5
490
330
170
100
AcDbEntity
  8
0
100
AcDbViewport
 10
0.0
 20
0.0
 30
0.0
 40
205.6
 41
156.0
 68
     1
 69
     1
 12
-8.0703420252
 22
-5.1585394371
 13
0.0
 23
0.0
 14
10.0
 24
10.0
 15
10.0
 25
10.0
 16
0.0
 26
0.0
 36
1.0
 17
0.0
 27
0.0
 37
0.0
 42
50.0
 43
0.0
 44
0.0
 45
63.7122628619
 50
0.0
 51
0.0
 72
   100
 90
   557152
  1

281
     0
 71
     1
 74
     0
110
0.0
120
0.0
130
0.0
111
1.0
121
0.0
131
0.0
112
0.0
122
1.0
132
0.0
 79
     0
146
0.0
  0
ENDBLK
  5
173
330
170
100
AcDbEntity
  8
0
100
AcDbBlockEnd
  0
BLOCK
  5
1B9
330
1B7
100
AcDbEntity
  8
0
100
AcDbBlockBegin
  2
*Paper_Space2
 70
     0
 10
0.0
 20
0.0
 30
0.0
  3
*Paper_Space2
  1

  0
LWPOLYLINE
  5
1C1
330
1B7
100
AcDbEntity
  8
0
  6
Continuous
 62
     7
370
    25
100
AcDbPolyline
 90
       13
 70
   128
 43
0.0
 10
77.7364259947
 20
-10.0
 10
77.9069727562
 20
-10.0088562662
 10
77.9648876892
 20
-10.035151494
 10
77.9083817968
 20
-10.0780734218
 10
77.7392005505
 20
-10.1362961879
 10
77.4625699724
 20
-10.2080212863
 10
77.0870352027
 20
-10.2910331232
 10
76.6241965402
 20
-10.3827674564
 10
76.0883511075
 20
-10.4803906052
 10
75.4960512124
 20
-10.5808869826
 10
74.8655930451
 20
-10.6811522478
 10
74.2164515083
 20
-10.7780891988
 10
73.5686786351
 20
-10.8687034455
  0
SPLINE
  5
1C5
330
1B7
100
AcDbEntity
  8
0
  6
Continuous
 62
     7
370
    25
100
AcDbSpline
210
0.0
220
0.0
230
1.0
 70
     8
 71
     3
 72
    18
 73
    14
 74
     0
 42
0.000000001
 43
0.00000001
 40
0.0
 40
0.0
 40
0.0
 40
0.0
 40
0.4999999999999757
 40
0.4999999999999757
 40
0.7499999999999772
 40
0.7499999999999772
 40
0.8749999999999866
 40
0.8749999999999866
 40
0.9374999999999873
 40
0.9374999999999873
 40
0.9687499999999937
 40
0.9687499999999937
 40
1.0
 40
1.0
 40
1.0
 40
1.0
 10
-78.83724462378835
 20
-10.81810324672097
 30
0.0
 10
-78.9997067293832
 20
-10.70520623964851
 30
0.0
 10
-79.15456330190861
 20
-10.58175253262239
 30
0.0
 10
-79.36759728343281
 20
-10.37710852437067
 30
0.0
 10
-79.43609193796856
 20
-10.30570726500493
 30
0.0
 10
-79.52425084464143
 20
-10.1875008205392
 30
0.0
 10
-79.55249540522846
 20
-10.14617957725095
 30
0.0
 10
-79.57726668357574
 20
-10.07717739022948
 30
0.0
 10
-79.58372229905773
 20
-10.0505039136256
 30
0.0
 10
-79.56705744916128
 20
-10.01768809497628
 30
0.0
 10
-79.55640322888273
 20
-10.00964817986478
 30
0.0
 10
-79.53301113777982
 20
-10.00124372467595
 30
0.0
 10
-79.52039536376975
 20
-9.99999999999999
 30
0.0
 10
-79.50787472854431
 20
-9.999999999999986
 30
0.0
  0
SPLINE
  5
1CF
330
1B7
100
AcDbEntity
  8
0
  6
Continuous
 62
     7
370
    25
100
AcDbSpline
210
0.0
220
0.0
230
1.0
 70
     8
 71
     3
 72
     8
 73
     4
 74
     0
 42
0.000000001
 43
0.00000001
 40
0.0
 40
0.0
 40
0.0
 40
0.0
 40
0.0000453377850437
 40
0.0000453377850437
 40
0.0000453377850437
 40
0.0000453377850437
 10
-79.84132562702305
 20
-10.11283913876438
 30
0.0
 10
-79.85356678571398
 20
-10.10414870624985
 30
0.0
 10
-79.86571944950127
 20
-10.09551763225035
 30
0.0
 10
-79.87740246651472
 20
-10.08721706836374
 30
0.0
  0
LINE
  5
1D8
330
1B7
100
AcDbEntity
  8
0
  6
Continuous
 62
     7
370
    25
100
AcDbLine
 10
79.7569937465
 20
-10.0328237943
 30
0.0
 11
-44.7388274373
 21
-26.8489557633
 31
0.0
  0
LINE
  5
1D9
330
1B7
100
AcDbEntity
  8
0
  6
Continuous
 62
     7
370
    25
100
AcDbLine
 10
-44.7655990909
 20
-26.5468222203
 30
0.0
 11
77.7364259947
 21
-10.0
 31
0.0
  0
LINE
  5
1DA
330
1B7
100
AcDbEntity
  8
0
  6
Continuous
 62
     7
370
    25
100
AcDbLine
 10
-79.5078747285
 20
-10.0
 30
0.0
 11
77.7364259947
 21
-10.0
 31
0.0
  0
LINE
  5
1DB
330
1B7
100
AcDbEntity
  8
0
  6
Continuous
 62
     7
370
    25
100
AcDbLine
 10
79.8083833315
 20
-10.0187182944
 30
0.0
 11
76.358103799
 21
-0.160776773
 31
0.0
  0
LINE
  5
1DC
330
1B7
100
AcDbEntity
  8
0
  6
Continuous
 62
     7
370
    25
100
AcDbLine
 10
-76.358103799
 20
-0.160776773
 30
0.0
 11
-79.841325627
 21
-10.1128391388
 31
0.0
  0
LINE
  5
1DD
330
1B7
100
AcDbEntity
  8
0
  6
Continuous
 62
     7
370
    25
100
AcDbLine
 10
76.358103799
 20
-0.160776773
 30
0.0
 11
-76.358103799
 21
-0.160776773
 31
0.0
  0
LINE
  5
1DE
330
1B7
100
AcDbEntity
  8
0
  6
Continuous
 62
     7
370
    25
100
AcDbLine
 10
-78.8372446238
 20
-10.8181032467
 30
0.0
 11
-79.841325627
 21
-10.1128391388
 31
0.0
  0
LINE
  5
1DF
330
1B7
100
AcDbEntity
  8
0
  6
Continuous
 62
     7
370
    25
100
AcDbLine
 10
-79.9503375999
 20
-9.8581074284
 30
0.0
 11
-76.5468754703
 21
-0.1339299151
 31
0.0
  0
LINE
  5
1E0
330
1B7
100
AcDbEntity
  8
0
  6
Continuous
 62
     7
370
    25
100
AcDbLine
 10
76.5468754703
 20
-0.1339299151
 30
0.0
 11
79.9189937642
 21
-9.7685536121
 31
0.0
  0
LINE
  5
1E1
330
1B7
100
AcDbEntity
  8
0
  6
Continuous
 62
     7
370
    25
100
AcDbLine
 10
-76.358103799
 20
-0.160776773
 30
0.0
 11
-76.358103799
 21
0.0
 31
0.0
  0
LINE
  5
1E2
330
1B7
100
AcDbEntity
  8
0
  6
Continuous
 62
     7
370
    25
100
AcDbLine
 10
-76.358103799
 20
0.0
 30
0.0
 11
76.358103799
 21
0.0
 31
0.0
  0
LINE
  5
1E3
330
1B7
100
AcDbEntity
  8
0
  6
Continuous
 62
     7
370
    25
100
AcDbLine
 10
76.358103799
 20
-0.160776773
 30
0.0
 11
76.358103799
 21
0.0
 31
0.0
  0
ARC
  5
1E4
330
1B7
100
AcDbEntity
  8
0
  6
Continuous
 62
     7
370
    25
100
AcDbCircle
 10
-45.4081187759
 20
-21.893953331
 30
0.0
 40
4.999999999999928
100
AcDbArc
 50
251.9844628484
 51
277.6926042333
  0
ARC
  5
1E5
330
1B7
100
AcDbEntity
  8
0
  6
Continuous
 62
     7
370
    25
100
AcDbCircle
 10
-46.4840974932
 20
-26.5941727199
 30
0.0
 40
0.4735589646027791
100
AcDbArc
 50
149.6214420372
 51
186.6261276113
  0
ARC
  5
1E6
330
1B7
100
AcDbEntity
  8
0
  6
Continuous
 62
     7
370
    25
100
AcDbCircle
 10
-45.4081187759
 20
-21.7900198853
 30
0.0
 40
4.799999999999971
100
AcDbArc
 50
251.9844628484
 51
277.6926042333
  0
ARC
  5
1E7
330
1B7
100
AcDbEntity
  8
0
  6
Continuous
 62
     7
370
    25
100
AcDbCircle
 10
-45.7797908469
 20
-26.788941282
 30
0.0
 40
1.042691976607016
100
AcDbArc
 50
356.7003890195
 51
13.4269677257
  0
ARC
  5
1E8
330
1B7
100
AcDbEntity
  8
0
  6
Continuous
 62
     7
370
    25
100
AcDbCircle
 10
-9.2296522241
 20
89.4531979608
 30
0.0
 40
121.778352522182
100
AcDbArc
 50
234.7532077775
 51
251.9844628484
  0
ARC
  5
1E9
330
1B7
100
AcDbEntity
  8
0
  6
Continuous
 62
     7
370
    25
100
AcDbCircle
 10
-9.2296522241
 20
89.3492645152
 30
0.0
 40
121.9783525221809
100
AcDbArc
 50
235.2040660788
 51
251.9844628484
  0
ARC
  5
1EA
330
1B7
100
AcDbEntity
  8
0
  6
Continuous
 62
     7
370
    25
100
AcDbCircle
 10
79.730222093
 20
-9.834623697
 30
0.0
 40
0.2000000000001264
100
AcDbArc
 50
277.6926042334
 51
19.2900462192
  0
ARC
  5
1EB
330
1B7
100
AcDbEntity
  8
0
  6
Continuous
 62
     7
370
    25
100
AcDbCircle
 10
-79.7615659287
 20
-9.9241775133
 30
0.0
 40
0.1999999999999976
100
AcDbArc
 50
160.7099537808
 51
234.6069221345
  0
ARC
  5
1EC
330
1B7
100
AcDbEntity
  8
0
  6
Continuous
 62
     7
370
    25
100
AcDbCircle
 10
-76.4892704268
 20
-0.4059747302
 30
0.0
 40
0.2780768283799748
100
AcDbArc
 50
61.8558130041
 51
101.9556878879
  0
ARC
  5
1ED
330
1B7
100
AcDbEntity
  8
0
  6
Continuous
 62
     7
370
    25
100
AcDbCircle
 10
76.4892704268
 20
-0.4059747302
 30
0.0
 40
0.2780768283800774
100
AcDbArc
 50
78.0443121121
 51
118.1441869959
  0
ARC
  5
1EE
330
1B7
100
AcDbEntity
  8
0
  6
Continuous
 62
     7
370
    25
100
AcDbCircle
 10
-76.358103799
 20
-0.2
 30
0.0
 40
0.1999999999999704
100
AcDbArc
 50
90.0
 51
160.7099537808
  0
ARC
  5
1EF
330
1B7
100
AcDbEntity
  8
0
  6
Continuous
 62
     7
370
    25
100
AcDbCircle
 10
76.358103799
 20
-0.2
 30
0.0
 40
0.1999999999999959
100
AcDbArc
 50
19.2900462192
 51
90.0
  0
VIEWPORT
  5
492
330
1B7
100
AcDbEntity
  8
0
100
AcDbViewport
 10
0.0
 20
0.0
 30
0.0
 40
205.6
 41
156.0
 68
     1
 69
     1
 12
-8.0703420252
 22
-5.1585394371
 13
0.0
 23
0.0
 14
10.0
 24
10.0
 15
10.0
 25
10.0
 16
0.0
 26
0.0
 36
1.0
 17
0.0
 27
0.0
 37
0.0
 42
50.0
 43
0.0
 44
0.0
 45
63.7122628619
 50
0.0
 51
0.0
 72
   100
 90
   557152
  1

281
     0
 71
     1
 74
     0
110
0.0
120
0.0
130
0.0
111
1.0
121
0.0
131
0.0
112
0.0
122
1.0
132
0.0
 79
     0
146
0.0
  0
ENDBLK
  5
1BA
330
1B7
100
AcDbEntity
  8
0
100
AcDbBlockEnd
  0
BLOCK
  5
1F2
330
1F0
100
AcDbEntity
  8
0
100
AcDbBlockBegin
  2
*Paper_Space3
 70
     0
 10
0.0
 20
0.0
 30
0.0
  3
*Paper_Space3
  1

  0
LWPOLYLINE
  5
1F7
330
1F0
100
AcDbEntity
  8
0
  6
Continuous
 62
     7
370
    25
100
AcDbPolyline
 90
        9
 70
   128
 43
0.0
 10
-3.5
 20
-9.9241775133
 10
-3.4961570561
 20
-9.9112878792
 10
-3.4847759065
 20
-9.8988935865
 10
-3.4662939225
 20
-9.8874709409
 10
-3.4414213562
 20
-9.8774589082
 10
-3.4111140466
 20
-9.8692422454
 10
-3.3765366865
 20
-9.8631367142
 10
-3.3390180644
 20
-9.8593769466
 10
-3.3
 20
-9.8581074284
  0
SPLINE
  5
1FB
330
1F0
100
AcDbEntity
  8
0
  6
Continuous
 62
     7
370
    25
100
AcDbSpline
210
0.0
220
0.0
230
1.0
 70
     8
 71
     3
 72
     8
 73
     4
 74
     0
 42
0.000000001
 43
0.00000001
 40
0.0
 40
0.0
 40
0.0
 40
0.0
 40
0.0000453377850437
 40
0.0000453377850437
 40
0.0000453377850437
 40
0.0000453377850437
 10
5.522567827752875
 20
-10.11283913876438
 30
0.0
 10
5.52082974124997
 20
-10.10414870624985
 30
0.0
 10
5.517489984524675
 20
-10.09551763225035
 30
0.0
 10
5.512694332253588
 20
-10.08721706836374
 30
0.0
  0
LWPOLYLINE
  5
1FE
330
1F0
100
AcDbEntity
  8
0
  6
Continuous
 62
     7
370
    25
100
AcDbPolyline
 90
        9
 70
   128
 43
0.0
 10
3.5321553546
 20
-0.160776773
 10
3.5263080711
 20
-0.1495561303
 10
3.5137382388
 20
-0.1401177625
 10
3.494889973
 20
-0.1327951443
 10
3.4704292177
 20
-0.1278469974
 10
3.4412202163
 20
-0.1254481489
 10
3.4082949766
 20
-0.1256833546
 10
3.372816808
 20
-0.1285443042
 10
3.3360392195
 20
-0.1339299151
  0
LWPOLYLINE
  5
204
330
1F0
100
AcDbEntity
  8
0
  6
Continuous
 62
     7
370
    25
100
AcDbPolyline
 90
        9
 70
   128
 43
0.0
 10
-3.5
 20
-0.2
 10
-3.4961570561
 20
-0.1871103659
 10
-3.4847759065
 20
-0.1747160731
 10
-3.4662939225
 20
-0.1632934275
 10
-3.4414213562
 20
-0.1532813949
 10
-3.4111140466
 20
-0.1450647321
 10
-3.3765366865
 20
-0.1389592008
 10
-3.3390180644
 20
-0.1351994332
 10
-3.3
 20
-0.1339299151
  0
LINE
  5
21B
330
1F0
100
AcDbEntity
  8
0
  6
Continuous
 62
     7
370
    25
100
AcDbLine
 10
9.3302232764
 20
-26.893953331
 30
0.0
 11
15.4199559824
 21
-26.893953331
 31
0.0
  0
LINE
  5
21C
330
1F0
100
AcDbEntity
  8
0
  6
Continuous
 62
     7
370
    25
100
AcDbLine
 10
-3.3
 20
0.0
 30
0.0
 11
-3.3
 21
-10.0961351135
 31
0.0
  0
LINE
  5
21D
330
1F0
100
AcDbEntity
  8
0
  6
Continuous
 62
     7
370
    25
100
AcDbLine
 10
3.5321553546
 20
-0.160776773
 30
0.0
 11
5.6636206493
 21
-10.8181032467
 31
0.0
  0
LINE
  5
21E
330
1F0
100
AcDbEntity
  8
0
  6
Continuous
 62
     7
370
    25
100
AcDbLine
 10
5.2808747221
 20
-9.8581074284
 30
0.0
 11
3.3360392195
 21
-0.1339299151
 31
0.0
  0
LINE
  5
21F
330
1F0
100
AcDbEntity
  8
0
  6
Continuous
 62
     7
370
    25
100
AcDbLine
 10
5.5126943323
 20
-10.0872170684
 30
0.0
 11
-3.3
 21
-10.0872170684
 31
0.0
  0
LINE
  5
220
330
1F0
100
AcDbEntity
  8
0
  6
Continuous
 62
     7
370
    25
100
AcDbLine
 10
-3.3
 20
-9.8581074284
 30
0.0
 11
5.2808747221
 21
-9.8581074284
 31
0.0
  0
LINE
  5
221
330
1F0
100
AcDbEntity
  8
0
  6
Continuous
 62
     7
370
    25
100
AcDbLine
 10
3.3360392195
 20
-0.1339299151
 30
0.0
 11
-3.3
 21
-0.1339299151
 31
0.0
  0
LINE
  5
222
330
1F0
100
AcDbEntity
  8
0
  6
Continuous
 62
     7
370
    25
100
AcDbLine
 10
-3.5
 20
-9.9330809361
 30
0.0
 11
-3.5
 21
-0.2
 31
0.0
  0
LINE
  5
223
330
1F0
100
AcDbEntity
  8
0
  6
Continuous
 62
     7
370
    25
100
AcDbLine
 10
15.2768165373
 20
-26.64881675
 30
0.0
 11
5.6636206493
 21
-10.8181032467
 31
0.0
  0
LINE
  5
224
330
1F0
100
AcDbEntity
  8
0
  6
Continuous
 62
     7
370
    25
100
AcDbLine
 10
9.1528885596
 20
-26.64881675
 30
0.0
 11
15.2768165373
 21
-26.64881675
 31
0.0
  0
LINE
  5
225
330
1F0
100
AcDbEntity
  8
0
  6
Continuous
 62
     7
370
    25
100
AcDbLine
 10
-3.3
 20
-10.0961351135
 30
0.0
 11
9.1528885596
 21
-26.64881675
 31
0.0
  0
LINE
  5
226
330
1F0
100
AcDbEntity
  8
0
  6
Continuous
 62
     7
370
    25
100
AcDbLine
 10
9.1704961739
 20
-26.8143163349
 30
0.0
 11
-3.459727102
 21
-10.0534439407
 31
0.0
  0
LINE
  5
227
330
1F0
100
AcDbEntity
  8
0
  6
Continuous
 62
     7
370
    25
100
AcDbLine
 10
5.5
 20
-10.0
 30
0.0
 11
15.5908297247
 21
-26.5900198707
 31
0.0
  0
LINE
  5
228
330
1F0
100
AcDbEntity
  8
0
  6
Continuous
 62
     7
370
    25
100
AcDbLine
 10
3.3360392195
 20
0.0
 30
0.0
 11
3.3360392195
 21
-0.1339299151
 31
0.0
  0
LINE
  5
229
330
1F0
100
AcDbEntity
  8
0
  6
Continuous
 62
     7
370
    25
100
AcDbLine
 10
-3.3
 20
0.0
 30
0.0
 11
3.3360392195
 21
0.0
 31
0.0
  0
LINE
  5
22A
330
1F0
100
AcDbEntity
  8
0
  6
Continuous
 62
     8
370
    25
100
AcDbLine
 10
15.4199559823
 20
-26.8939533308
 30
0.0
 11
15.2768165373
 21
-26.64881675
 31
0.0
  0
LINE
  5
22B
330
1F0
100
AcDbEntity
  8
0
  6
Continuous
 62
     8
370
    25
100
AcDbLine
 10
9.1528885596
 20
-26.64881675
 30
0.0
 11
9.3302232762
 21
-26.8939533306
 31
0.0
  0
ARC
  5
22C
330
1F0
100
AcDbEntity
  8
0
  6
Continuous
 62
     7
370
    25
100
AcDbCircle
 10
15.4199559824
 20
-26.693953331
 30
0.0
 40
0.2000000000000028
100
AcDbArc
 50
270.0
 51
31.309932474
  0
ARC
  5
22D
330
1F0
100
AcDbEntity
  8
0
  6
Continuous
 62
     7
370
    25
100
AcDbCircle
 10
9.3302232764
 20
-26.693953331
 30
0.0
 40
0.2000000000000106
100
AcDbArc
 50
217.0
 51
266.8710979679
  0
ARC
  5
22E
330
1F0
100
AcDbEntity
  8
0
  6
Continuous
 62
     7
370
    25
100
AcDbCircle
 10
-3.3167726294
 20
-9.9036025929
 30
0.0
 40
0.1843789486291358
100
AcDbArc
 50
186.4070032296
 51
275.2193119533
  0
ARC
  5
22F
330
1F0
100
AcDbEntity
  8
0
  6
Continuous
 62
     7
370
    25
100
AcDbCircle
 10
4.6086990705
 20
-10.7700693908
 30
0.0
 40
1.132914263080531
100
AcDbArc
 50
37.0663621199
 51
53.6073554369
  0
ARC
  5
230
330
1F0
100
AcDbEntity
  8
0
  6
Continuous
 62
     7
370
    25
100
AcDbCircle
 10
-3.3167666691
 20
-9.9125151716
 30
0.0
 40
0.1843838502614795
100
AcDbArc
 50
186.4039691819
 51
275.2173129908
  0
ARC
  5
231
330
1F0
100
AcDbEntity
  8
0
  6
Continuous
 62
     7
370
    25
100
AcDbCircle
 10
9.1369136259
 20
-26.4677672335
 30
0.0
 40
0.1817529255518546
100
AcDbArc
 50
217.7283553766
 51
275.0424436483
  0
ARC
  5
232
330
1F0
100
AcDbEntity
  8
0
  6
Continuous
 62
     7
370
    25
100
AcDbCircle
 10
-3.3477771621
 20
-9.9547397465
 30
0.0
 40
0.1492491441113466
100
AcDbArc
 50
221.4020289229
 51
288.6699900758
  0
ARC
  5
233
330
1F0
100
AcDbEntity
  8
0
  6
Continuous
 62
     7
370
    25
100
AcDbCircle
 10
-3.3
 20
-9.9330809361
 30
0.0
 40
0.2000000000000899
100
AcDbArc
 50
180.0
 51
217.0
  0
ARC
  5
234
330
1F0
100
AcDbEntity
  8
0
  6
Continuous
 62
     7
370
    25
100
AcDbCircle
 10
15.2713042973
 20
-26.4489158392
 30
0.0
 40
0.1999768960382618
100
AcDbArc
 50
271.5795229559
 51
28.1115561001
  0
ARC
  5
235
330
1F0
100
AcDbEntity
  8
0
  6
Continuous
 62
     7
370
    25
100
AcDbCircle
 10
-3.3
 20
-0.2
 30
0.0
 40
0.1999999999999984
100
AcDbArc
 50
90.0
 51
180.0
  0
ARC
  5
236
330
1F0
100
AcDbEntity
  8
0
  6
Continuous
 62
     7
370
    25
100
AcDbCircle
 10
3.3360392195
 20
-0.2
 30
0.0
 40
0.1999999999999991
100
AcDbArc
 50
11.309932474
 51
90.0
  0
VIEWPORT
  5
494
330
1F0
100
AcDbEntity
  8
0
100
AcDbViewport
 10
0.0
 20
0.0
 30
0.0
 40
205.6
 41
156.0
 68
     1
 69
     1
 12
-8.0703420252
 22
-5.1585394371
 13
0.0
 23
0.0
 14
10.0
 24
10.0
 15
10.0
 25
10.0
 16
0.0
 26
0.0
 36
1.0
 17
0.0
 27
0.0
 37
0.0
 42
50.0
 43
0.0
 44
0.0
 45
63.7122628619
 50
0.0
 51
0.0
 72
   100
 90
   557152
  1

281
     0
 71
     1
 74
     0
110
0.0
120
0.0
130
0.0
111
1.0
121
0.0
131
0.0
112
0.0
122
1.0
132
0.0
 79
     0
146
0.0
  0
ENDBLK
  5
1F3
330
1F0
100
AcDbEntity
  8
0
100
AcDbBlockEnd
  0
BLOCK
  5
239
330
237
100
AcDbEntity
  8
0
100
AcDbBlockBegin
  2
*Paper_Space4
 70
     0
 10
0.0
 20
0.0
 30
0.0
  3
*Paper_Space4
  1

  0
SPLINE
  5
23B
330
237
100
AcDbEntity
  8
0
  6
Continuous
 62
     7
370
    25
100
AcDbSpline
210
0.0
220
0.0
230
1.0
 70
     8
 71
     3
 72
    11
 73
     7
 74
     0
 42
0.000000001
 43
0.00000001
 40
0.0
 40
0.0
 40
0.0
 40
0.0
 40
0.1563379922396415
 40
0.4523599871192072
 40
0.7495317824244961
 40
1.0
 40
1.0
 40
1.0
 40
1.0
 10
-44.74922261366522
 20
15.59300953232035
 30
0.0
 10
-44.86381771249771
 20
15.60094318701526
 30
0.0
 10
-45.19539570380468
 20
15.62389901422133
 30
0.0
 10
-45.75159626601737
 20
15.62063312988602
 30
0.0
 10
-46.37119852928822
 20
15.57185712004668
 30
0.0
 10
-46.75562701544293
 20
15.50403417523549
 30
0.0
 10
-46.93144893394359
 20
15.47301472505285
 30
0.0
  0
SPLINE
  5
23D
330
237
100
AcDbEntity
  8
0
  6
Continuous
 62
     7
370
    25
100
AcDbSpline
210
0.0
220
0.0
230
1.0
 70
     8
 71
     3
 72
    12
 73
     8
 74
     0
 42
0.000000001
 43
0.00000001
 40
0.0
 40
0.0
 40
0.0
 40
0.0
 40
0.1149119460865597
 40
0.3615688238657902
 40
0.6097069283602017
 40
0.8593688493162103
 40
1.0
 40
1.0
 40
1.0
 40
1.0
 10
-68.11674269027961
 20
9.875754389008987
 30
0.0
 10
-68.56896769593003
 20
9.725622964300774
 30
0.0
 10
-69.99188732251575
 20
9.253236545780334
 30
0.0
 10
-72.33254914337526
 20
8.409965403401674
 30
0.0
 10
-75.1424241652334
 20
7.345917008092621
 30
0.0
 10
-77.50301482809468
 20
6.398779368836965
 30
0.0
 10
-78.91257137760633
 20
5.798120585903455
 30
0.0
 10
-79.42046550618731
 20
5.581690057282073
 30
0.0
  0
SPLINE
  5
23E
330
237
100
AcDbEntity
  8
0
  6
Continuous
 62
     7
370
    25
100
AcDbSpline
210
0.0
220
0.0
230
1.0
 70
     8
 71
     3
 72
     9
 73
     5
 74
     0
 42
0.000000001
 43
0.00000001
 40
0.0
 40
0.0
 40
0.0
 40
0.0
 40
0.766466217691254
 40
1.0
 40
1.0
 40
1.0
 40
1.0
 10
-46.93144893394359
 20
15.47301472505286
 30
0.0
 10
-47.47700255902713
 20
15.36537542373383
 30
0.0
 10
-48.18878034191085
 20
15.22493961738706
 30
0.0
 10
-48.89074270062675
 20
15.07182794856646
 30
0.0
 10
-49.05467462529604
 20
15.03607120143118
 30
0.0
  0
SPLINE
  5
255
330
237
100
AcDbEntity
  8
0
  6
Continuous
 62
     7
370
    25
100
AcDbSpline
210
0.0
220
0.0
230
1.0
 70
     8
 71
     3
 72
     8
 73
     4
 74
     0
 42
0.000000001
 43
0.00000001
 40
0.0
 40
0.0
 40
0.0
 40
0.0
 40
0.0000453377850437
 40
0.0000453377850437
 40
0.0000453377850437
 40
0.0000453377850437
 10
-79.84132562702305
 20
5.522567827752875
 30
0.0
 10
-79.85356678571398
 20
5.52082974124997
 30
0.0
 10
-79.86571944950127
 20
5.517489984524675
 30
0.0
 10
-79.87740246651472
 20
5.512694332253588
 30
0.0
  0
LWPOLYLINE
  5
260
330
237
100
AcDbEntity
  8
0
  6
Continuous
 62
     7
370
    25
100
AcDbPolyline
 90
        9
 70
   128
 43
0.0
 10
-79.8648486684
 20
-3.3
 10
-79.8626232974
 20
-3.3390180644
 10
-79.8560327039
 20
-3.3765366865
 10
-79.8453301608
 20
-3.4111140466
 10
-79.8309269608
 20
-3.4414213562
 10
-79.8133766109
 20
-3.4662939225
 10
-79.7933535611
 20
-3.4847759065
 10
-79.771627286
 20
-3.4961570561
 10
-79.7490327142
 20
-3.5
  0
LWPOLYLINE
  5
262
330
237
100
AcDbEntity
  8
0
  6
Continuous
 62
     7
370
    25
100
AcDbPolyline
 90
        9
 70
   128
 43
0.0
 10
-79.8774024665
 20
-3.3
 10
-79.8751766999
 20
-3.3390180644
 10
-79.8685849351
 20
-3.3765366865
 10
-79.8578804899
 20
-3.4111140466
 10
-79.8434747301
 20
-3.4414213562
 10
-79.825921261
 20
-3.4662939225
 10
-79.8058946526
 20
-3.4847759065
 10
-79.7841645161
 20
-3.4961570561
 10
-79.7615659287
 20
-3.5
  0
LWPOLYLINE
  5
267
330
237
100
AcDbEntity
  8
0
  6
Continuous
 62
     8
370
    25
100
AcDbPolyline
 90
        7
 70
   128
 43
0.0
 10
-46.9544932021
 20
15.2768165373
 10
-46.9614710373
 20
15.3275291222
 10
-46.9637878092
 20
15.374807668
 10
-46.961286636
 20
15.4154506741
 10
-46.9541368864
 20
15.4467059701
 10
-46.9428227109
 20
15.4664570814
 10
-46.9314162966
 20
15.4730211507
  0
LINE
  5
26B
330
237
100
AcDbEntity
  8
0
  6
Continuous
 62
     7
370
    25
100
AcDbLine
 10
77.1679124443
 20
5.5765082035
 30
0.0
 11
-44.7492226137
 21
15.5930095323
 31
0.0
  0
LINE
  5
26C
330
237
100
AcDbEntity
  8
0
  6
Continuous
 62
     7
370
    25
100
AcDbLine
 10
-79.9615659287
 20
5.3605838582
 30
0.0
 11
-79.9615659287
 21
-3.3
 31
0.0
  0
LINE
  5
26D
330
237
100
AcDbEntity
  8
0
  6
Continuous
 62
     7
370
    25
100
AcDbLine
 10
79.930222093
 20
-3.3
 30
0.0
 11
79.930222093
 21
5.342673095
 31
0.0
  0
LINE
  5
26E
330
237
100
AcDbEntity
  8
0
  6
Continuous
 62
     7
370
    25
100
AcDbLine
 10
-44.7388274373
 20
15.3936811325
 30
0.0
 11
-44.7388274373
 21
9.297671501
 31
0.0
  0
LINE
  5
26F
330
237
100
AcDbEntity
  8
0
  6
Continuous
 62
     7
370
    25
100
AcDbLine
 10
-46.9544932021
 20
9.1528885596
 30
0.0
 11
-46.9544932021
 21
15.2768165373
 31
0.0
  0
LINE
  5
270
330
237
100
AcDbEntity
  8
0
  6
Continuous
 62
     7
370
    25
100
AcDbLine
 10
-44.7388274373
 20
9.297671501
 30
0.0
 11
79.0280796982
 21
-3.3
 31
0.0
  0
LINE
  5
271
330
237
100
AcDbEntity
  8
0
  6
Continuous
 62
     7
370
    25
100
AcDbLine
 10
79.0013080447
 20
-3.459727102
 30
0.0
 11
-44.7655990909
 21
9.137944399
 31
0.0
  0
LINE
  5
272
330
237
100
AcDbEntity
  8
0
  6
Continuous
 62
     7
370
    25
100
AcDbLine
 10
73.5686786351
 20
5.6737406891
 30
0.0
 11
-44.7388274373
 21
15.3936811325
 31
0.0
  0
LINE
  5
273
330
237
100
AcDbEntity
  8
0
  6
Continuous
 62
     7
370
    25
100
AcDbLine
 10
79.7569937465
 20
5.5065647589
 30
0.0
 11
73.5686786351
 21
5.6737406891
 31
0.0
  0
LINE
  5
274
330
237
100
AcDbEntity
  8
0
  6
Continuous
 62
     7
370
    25
100
AcDbLine
 10
79.7569937465
 20
-3.3
 30
0.0
 11
79.7569937465
 21
5.5065647589
 31
0.0
  0
LINE
  5
275
330
237
100
AcDbEntity
  8
0
  6
Continuous
 62
     7
370
    25
100
AcDbLine
 10
79.0280796982
 20
-3.3
 30
0.0
 11
79.930222093
 21
-3.3
 31
0.0
  0
LINE
  5
276
330
237
100
AcDbEntity
  8
0
  6
Continuous
 62
     7
370
    25
100
AcDbLine
 10
-79.7490327142
 20
-3.459727102
 30
0.0
 11
79.0013080447
 21
-3.459727102
 31
0.0
  0
LINE
  5
277
330
237
100
AcDbEntity
  8
0
  6
Continuous
 62
     7
370
    25
100
AcDbLine
 10
-78.8372446238
 20
5.6636206493
 30
0.0
 11
-79.841325627
 21
5.5225678278
 31
0.0
  0
LINE
  5
278
330
237
100
AcDbEntity
  8
0
  6
Continuous
 62
     7
370
    25
100
AcDbLine
 10
-79.9615659287
 20
-3.3
 30
0.0
 11
-79.8648486684
 21
-3.3
 31
0.0
  0
LINE
  5
279
330
237
100
AcDbEntity
  8
0
  6
Continuous
 62
     7
370
    25
100
AcDbLine
 10
-79.8774024665
 20
5.5126943323
 30
0.0
 11
-79.8774024665
 21
-3.3
 31
0.0
  0
LINE
  5
27A
330
237
100
AcDbEntity
  8
0
  6
Continuous
 62
     7
370
    25
100
AcDbLine
 10
79.0013080447
 20
-3.459727102
 30
0.0
 11
79.0013080447
 21
-3.5
 31
0.0
  0
LINE
  5
27B
330
237
100
AcDbEntity
  8
0
  6
Continuous
 62
     7
370
    25
100
AcDbLine
 10
-79.7490327142
 20
-3.459727102
 30
0.0
 11
-79.7490327142
 21
-3.5
 31
0.0
  0
LINE
  5
27C
330
237
100
AcDbEntity
  8
0
  6
Continuous
 62
     7
370
    25
100
AcDbLine
 10
79.730222093
 20
-3.5
 30
0.0
 11
-79.7615659287
 21
-3.5
 31
0.0
  0
ARC
  5
27D
330
237
100
AcDbEntity
  8
0
  6
Continuous
 62
     7
370
    25
100
AcDbCircle
 10
-79.7615659287
 20
-3.3
 30
0.0
 40
0.2000000000000028
100
AcDbArc
 50
180.0
 51
270.0
  0
ARC
  5
27E
330
237
100
AcDbEntity
  8
0
  6
Continuous
 62
     7
370
    25
100
AcDbCircle
 10
79.730222093
 20
-3.3
 30
0.0
 40
0.2000000000000171
100
AcDbArc
 50
270.0
 51
360.0
  0
ARC
  5
27F
330
237
100
AcDbEntity
  8
0
  6
Continuous
 62
     7
370
    25
100
AcDbCircle
 10
-45.4072110705
 20
7.0036180649
 30
0.0
 40
8.416643924888978
100
AcDbArc
 50
85.4452241609
 51
100.5932760852
  0
ARC
  5
280
330
237
100
AcDbEntity
  8
0
  6
Continuous
 62
     7
370
    25
100
AcDbCircle
 10
-45.40754737
 20
2.8721532204
 30
0.0
 40
6.298590055521917
100
AcDbArc
 50
84.1502933879
 51
103.6376925289
  0
ARC
  5
281
330
237
100
AcDbEntity
  8
0
  6
Continuous
 62
     7
370
    25
100
AcDbCircle
 10
-46.4707819942
 20
9.2483673657
 30
0.0
 40
0.4930443540753697
100
AcDbArc
 50
191.1659619861
 51
211.1722368429
  0
ARC
  5
282
330
237
100
AcDbEntity
  8
0
  6
Continuous
 62
     7
370
    25
100
AcDbCircle
 10
-45.4074622449
 20
2.5040729011
 30
0.0
 40
6.82642325399812
100
AcDbArc
 50
84.37897805
 51
103.0983902698
  0
ARC
  5
283
330
237
100
AcDbEntity
  8
0
  6
Continuous
 62
     7
370
    25
100
AcDbCircle
 10
-45.7569169642
 20
9.3862050413
 30
0.0
 40
1.021931735775259
100
AcDbArc
 50
345.940304052
 51
355.0300349468
  0
ARC
  5
284
330
237
100
AcDbEntity
  8
0
  6
Continuous
 62
     7
370
    25
100
AcDbCircle
 10
78.0099901713
 20
-3.2114664597
 30
0.0
 40
1.021931735778532
100
AcDbArc
 50
345.940304052
 51
355.0300349468
  0
ARC
  5
285
330
237
100
AcDbEntity
  8
0
  6
Continuous
 62
     7
370
    25
100
AcDbCircle
 10
-14.0155656348
 20
-127.3230518217
 30
0.0
 40
140.224861935776
100
AcDbArc
 50
103.5597733678
 51
117.9546037557
  0
ARC
  5
286
330
237
100
AcDbEntity
  8
0
  6
Continuous
 62
     7
370
    25
100
AcDbCircle
 10
-79.5503976209
 20
-3.1938476519
 30
0.0
 40
0.3318851944829765
100
AcDbArc
 50
198.6536476287
 51
233.2370677235
  0
ARC
  5
287
330
237
100
AcDbEntity
  8
0
  6
Continuous
 62
     7
370
    25
100
AcDbCircle
 10
-13.7814992381
 20
-128.2303362444
 30
0.0
 40
141.3315180207925
100
AcDbArc
 50
103.574976538
 51
117.877120817
  0
ARC
  5
288
330
237
100
AcDbEntity
  8
0
  6
Continuous
 62
     7
370
    25
100
AcDbCircle
 10
-15.8456400829
 20
-145.5747395668
 30
0.0
 40
163.8321819530279
100
AcDbArc
 50
100.9459231358
 51
112.6119949413
  0
ARC
  5
289
330
237
100
AcDbEntity
  8
0
  6
Continuous
 62
     7
370
    25
100
AcDbCircle
 10
-14.1665148046
 20
-151.5803461457
 30
0.0
 40
170.2008374764363
100
AcDbArc
 50
101.8153641479
 51
108.4279165391
  0
ARC
  5
28A
330
237
100
AcDbEntity
  8
0
  6
Continuous
 62
     7
370
    25
100
AcDbCircle
 10
78.6344715463
 20
-3.3491040982
 30
0.0
 40
0.3966592866937866
100
AcDbArc
 50
337.6404903368
 51
7.1111246543
  0
ARC
  5
28B
330
237
100
AcDbEntity
  8
0
  6
Continuous
 62
     7
370
    25
100
AcDbCircle
 10
79.3633855946
 20
-3.3491040982
 30
0.0
 40
0.3966592866940358
100
AcDbArc
 50
337.6404903369
 51
7.1111246542
  0
ARC
  5
28C
330
237
100
AcDbEntity
  8
0
  6
Continuous
 62
     7
370
    25
100
AcDbCircle
 10
-79.8030269978
 20
5.3722027624
 30
0.0
 40
0.1589641203016719
100
AcDbArc
 50
117.8964997782
 51
184.1915644036
  0
ARC
  5
28D
330
237
100
AcDbEntity
  8
0
  6
Continuous
 62
     7
370
    25
100
AcDbCircle
 10
79.780241033
 20
5.3558393653
 30
0.0
 40
0.1505578593728868
100
AcDbArc
 50
354.9830812028
 51
79.2268977151
  0
ARC
  5
28E
330
237
100
AcDbEntity
  8
0
  6
Continuous
 62
     7
370
    25
100
AcDbCircle
 10
79.7335778424
 20
4.6105463132
 30
0.0
 40
0.8963243606812765
100
AcDbArc
 50
85.2126370646
 51
88.5030138755
  0
ARC
  5
28F
330
237
100
AcDbEntity
  8
0
  6
Continuous
 62
     8
370
    25
100
AcDbCircle
 10
-45.1174780495
 20
15.4738693819
 30
0.0
 40
0.3870483709467122
100
AcDbArc
 50
348.0429213446
 51
17.9277346729
  0
VIEWPORT
  5
496
330
237
100
AcDbEntity
  8
0
100
AcDbViewport
 10
0.0
 20
0.0
 30
0.0
 40
205.6
 41
156.0
 68
     1
 69
     1
 12
-8.0703420252
 22
-5.1585394371
 13
0.0
 23
0.0
 14
10.0
 24
10.0
 15
10.0
 25
10.0
 16
0.0
 26
0.0
 36
1.0
 17
0.0
 27
0.0
 37
0.0
 42
50.0
 43
0.0
 44
0.0
 45
63.7122628619
 50
0.0
 51
0.0
 72
   100
 90
   557152
  1

281
     0
 71
     1
 74
     0
110
0.0
120
0.0
130
0.0
111
1.0
121
0.0
131
0.0
112
0.0
122
1.0
132
0.0
 79
     0
146
0.0
  0
ENDBLK
  5
23A
330
237
100
AcDbEntity
  8
0
100
AcDbBlockEnd
  0
BLOCK
  5
292
330
290
100
AcDbEntity
  8
0
100
AcDbBlockBegin
  2
*Paper_Space5
 70
     0
 10
0.0
 20
0.0
 30
0.0
  3
*Paper_Space5
  1

  0
SPLINE
  5
29B
330
290
100
AcDbEntity
  8
0
  6
Continuous
 62
     7
370
    25
100
AcDbSpline
210
0.0
220
0.0
230
1.0
 70
     8
 71
     3
 72
    19
 73
    15
 74
     0
 42
0.000000001
 43
0.00000001
 40
0.0
 40
0.0
 40
0.0
 40
0.0
 40
0.036989678675185
 40
0.1298515743916678
 40
0.2221386060326396
 40
0.3138627505620056
 40
0.4050401021445352
 40
0.4956883222354079
 40
0.5858265778291002
 40
0.6754754766435487
 40
0.7646569993808673
 40
0.8533944293817431
 40
0.9417122799869426
 40
1.0
 40
1.0
 40
1.0
 40
1.0
 10
-60.11616479817371
 20
21.79389027005922
 30
0.0
 10
-59.97016121070681
 20
21.37700385615097
 30
0.0
 10
-59.45761835068653
 20
19.91353190593918
 30
0.0
 10
-58.52724592466719
 20
17.4427790596933
 30
0.0
 10
-57.30127963681199
 20
14.40756587363059
 30
0.0
 10
-56.00970977875362
 20
11.44225704041087
 30
0.0
 10
-54.65589861975192
 20
8.54731729192484
 30
0.0
 10
-53.24059677167217
 20
5.724664911349366
 30
0.0
 10
-51.7652881738391
 20
2.975695941138679
 30
0.0
 10
-50.23117057128802
 20
0.3019768320727326
 30
0.0
 10
-48.63990789724213
 20
-2.295515127867293
 30
0.0
 10
-46.99163312643913
 20
-4.814038038304751
 30
0.0
 10
-45.48220399548546
 20
-6.984358480047899
 30
0.0
 10
-44.50773628709925
 20
-8.297099314203237
 30
0.0
 10
-44.12030557277748
 20
-8.819021297578566
 30
0.0
  0
SPLINE
  5
29C
330
290
100
AcDbEntity
  8
0
  6
Continuous
 62
     7
370
    25
100
AcDbSpline
210
0.0
220
0.0
230
1.0
 70
     8
 71
     3
 72
    11
 73
     7
 74
     0
 42
0.000000001
 43
0.00000001
 40
0.0
 40
0.0
 40
0.0
 40
0.0
 40
0.1588465841930394
 40
0.4529244853325494
 40
0.7436707789578064
 40
1.0
 40
1.0
 40
1.0
 40
1.0
 10
-44.12030557277747
 20
-8.819021297578544
 30
0.0
 10
-44.05434432714424
 20
-8.902454462099463
 30
0.0
 10
-43.86626685993211
 20
-9.140350185776958
 30
0.0
 10
-43.51154260547156
 20
-9.472582620866376
 30
0.0
 10
-43.06772627304041
 20
-9.775351778642076
 30
0.0
 10
-42.7521891071901
 20
-9.90158392371426
 30
0.0
 10
-42.60434590499263
 20
-9.960729300448042
 30
0.0
  0
LWPOLYLINE
  5
2A4
330
290
100
AcDbEntity
  8
0
  6
Continuous
 62
     7
370
    25
100
AcDbPolyline
 90
       10
 70
   128
 43
0.0
 10
51.0788666695
 20
-42.1428548095
 10
51.1982089759
 20
-42.2204272248
 10
51.235442311
 20
-42.2676862257
 10
51.1894165341
 20
-42.2831719781
 10
51.061553385
 20
-42.2664061256
 10
50.8558025667
 20
-42.217906567
 10
50.5785197379
 20
-42.1391714573
 10
50.2382701872
 20
-42.0326329303
 10
49.84556425
 20
-41.9015819695
 10
49.7580419114
 20
-41.8714862851
  0
SPLINE
  5
2A6
330
290
100
AcDbEntity
  8
0
  6
Continuous
 62
     7
370
    25
100
AcDbSpline
210
0.0
220
0.0
230
1.0
 70
     8
 71
     3
 72
    16
 73
    12
 74
     0
 42
0.000000001
 43
0.00000001
 40
0.0
 40
0.0
 40
0.0
 40
0.0
 40
0.233775911324336
 40
0.475823041780618
 40
0.63191014741502
 40
0.7035455287761836
 40
0.7633261349181341
 40
0.8078092448347852
 40
0.8523669736137238
 40
0.9112457201633863
 40
1.0
 40
1.0
 40
1.0
 40
1.0
 10
-60.11638878399031
 20
21.79381187846241
 30
0.0
 10
-60.12571588398361
 20
21.81894679221671
 30
0.0
 10
-60.14470008584023
 20
21.87010591742218
 30
0.0
 10
-60.16197328576818
 20
21.94033861177139
 30
0.0
 10
-60.16933157925264
 20
21.99294339665677
 30
0.0
 10
-60.16803125233473
 20
22.02374900429258
 30
0.0
 10
-60.16342820080806
 20
22.04064825643996
 30
0.0
 10
-60.15565565143037
 20
22.05102466034974
 30
0.0
 10
-60.14496669932248
 20
22.05593409281604
 30
0.0
 10
-60.129069097486
 20
22.05489719044771
 30
0.0
 10
-60.11693779335101
 20
22.04865762658191
 30
0.0
 10
-60.10964467481015
 20
22.04490651471379
 30
0.0
  0
SPLINE
  5
2BC
330
290
100
AcDbEntity
  8
0
  6
Continuous
 62
     7
370
    25
100
AcDbSpline
210
0.0
220
0.0
230
1.0
 70
     8
 71
     3
 72
     8
 73
     4
 74
     0
 42
0.000000001
 43
0.00000001
 40
0.0
 40
0.0
 40
0.0
 40
0.0
 40
0.0000453377850437
 40
0.0000453377850437
 40
0.0000453377850437
 40
0.0000453377850437
 10
-60.36138793035791
 20
22.0796724831191
 30
0.0
 10
-60.36881472392535
 20
22.09247496052685
 30
0.0
 10
-60.37504639027086
 20
22.10584665358698
 30
0.0
 10
-60.37991649258469
 20
22.11935106240003
 30
0.0
  0
LWPOLYLINE
  5
2BD
330
290
100
AcDbEntity
  8
0
  6
Continuous
 62
     8
370
    25
100
AcDbPolyline
 90
        7
 70
   128
 43
0.0
 10
-42.604345905
 20
-9.9607293004
 10
-42.6179608113
 20
-9.9543813061
 10
-42.6424932581
 20
-9.9317636379
 10
-42.6598582581
 20
-9.8980565383
 10
-42.6688527878
 20
-9.8555951891
 10
-42.6688537184
 20
-9.8073212545
 10
-42.6598609855
 20
-9.7565790866
  0
LWPOLYLINE
  5
2BE
330
290
100
AcDbEntity
  8
0
  6
Continuous
 62
     8
370
    25
100
AcDbPolyline
 90
        6
 70
   128
 43
0.0
 10
58.9048935736
 20
-39.1795421371
 10
58.905618921
 20
-39.1881096349
 10
58.9007885825
 20
-39.2033550327
 10
58.8886737326
 20
-39.2196051006
 10
58.8697399381
 20
-39.2362353574
 10
58.8447148142
 20
-39.2526067118
  0
LWPOLYLINE
  5
2BF
330
290
100
AcDbEntity
  8
0
  6
Continuous
 62
     8
370
    25
100
AcDbPolyline
 90
        6
 70
   128
 43
0.0
 10
56.520445861
 20
-29.9359663168
 10
56.5211712084
 20
-29.9445338145
 10
56.5163408699
 20
-29.9597792124
 10
56.50422602
 20
-29.9760292802
 10
56.4852922255
 20
-29.992659537
 10
56.4602671016
 20
-30.0090308914
  0
LWPOLYLINE
  5
2C0
330
290
100
AcDbEntity
  8
0
  6
Continuous
 62
     8
370
    25
100
AcDbPolyline
 90
        7
 70
   128
 43
0.0
 10
58.8112249586
 20
-39.4027080432
 10
58.8126051775
 20
-39.401888957
 10
58.8318034248
 20
-39.3844514075
 10
58.8451023514
 20
-39.3594322399
 10
58.8518512611
 20
-39.3280556035
 10
58.8517199403
 20
-39.2918567087
 10
58.8447148142
 20
-39.2526067118
  0
LWPOLYLINE
  5
2C3
330
290
100
AcDbEntity
  8
0
  6
Continuous
 62
     8
370
    25
100
AcDbPolyline
 90
        6
 70
   128
 43
0.0
 10
-44.1202937705
 20
-8.8190369893
 10
-44.1240591356
 20
-8.8131137285
 10
-44.1300249501
 20
-8.7875782241
 10
-44.1245074042
 20
-8.7560336267
 10
-44.1078801225
 20
-8.7206160013
 10
-44.0812690334
 20
-8.6837236777
  0
LINE
  5
2C7
330
290
100
AcDbEntity
  8
0
  6
Continuous
 62
     7
370
    25
100
AcDbLine
 10
-42.604345905
 20
-9.9607293004
 30
0.0
 11
49.7580419114
 21
-41.8714862851
 31
0.0
  0
LINE
  5
2C8
330
290
100
AcDbEntity
  8
0
  6
Continuous
 62
     7
370
    25
100
AcDbLine
 10
58.9048935736
 20
-39.1795421371
 30
0.0
 11
56.520445861
 21
-29.9359663168
 31
0.0
  0
LINE
  5
2C9
330
290
100
AcDbEntity
  8
0
  6
Continuous
 62
     7
370
    25
100
AcDbLine
 10
52.6025642994
 20
-42.9868915502
 30
0.0
 11
58.8112249586
 21
-39.4027080432
 31
0.0
  0
LINE
  5
2CA
330
290
100
AcDbEntity
  8
0
  6
Continuous
 62
     7
370
    25
100
AcDbLine
 10
56.426777246
 20
-29.8127126778
 30
0.0
 11
-51.5598887436
 21
32.5266626671
 31
0.0
  0
LINE
  5
2CB
330
290
100
AcDbEntity
  8
0
  6
Continuous
 62
     7
370
    25
100
AcDbLine
 10
-56.5300821114
 20
29.7361506509
 30
0.0
 11
-60.3510296997
 21
22.3153845934
 31
0.0
  0
LINE
  5
2CC
330
290
100
AcDbEntity
  8
0
  6
Continuous
 62
     7
370
    25
100
AcDbLine
 10
-51.7598724902
 20
32.5266626671
 30
0.0
 11
-56.4522608225
 21
29.8178045425
 31
0.0
  0
LINE
  5
2CD
330
290
100
AcDbEntity
  8
0
  6
Continuous
 62
     7
370
    25
100
AcDbLine
 10
52.5413145861
 20
-43.0054486261
 30
0.0
 11
51.4957219914
 21
-32.742808611
 31
0.0
  0
LINE
  5
2CE
330
290
100
AcDbEntity
  8
0
  6
Continuous
 62
     7
370
    25
100
AcDbLine
 10
52.5029818432
 20
-42.9971404898
 30
0.0
 11
48.9247458907
 21
-41.5835865518
 31
0.0
  0
LINE
  5
2CF
330
290
100
AcDbEntity
  8
0
  6
Continuous
 62
     7
370
    25
100
AcDbLine
 10
-60.1096446748
 20
22.0449065147
 30
0.0
 11
51.0788666695
 21
-42.1428548095
 31
0.0
  0
LINE
  5
2D0
330
290
100
AcDbEntity
  8
0
  6
Continuous
 62
     7
370
    25
100
AcDbLine
 10
-59.9983731815
 20
21.4569708379
 30
0.0
 11
-60.3613879304
 21
22.0796724831
 31
0.0
  0
LINE
  5
2D1
330
290
100
AcDbEntity
  8
0
  6
Continuous
 62
     7
370
    25
100
AcDbLine
 10
-56.4909439983
 20
29.5965667339
 30
0.0
 11
-60.3613879304
 21
22.0796724831
 31
0.0
  0
LINE
  5
2D2
330
290
100
AcDbEntity
  8
0
  6
Continuous
 62
     7
370
    25
100
AcDbLine
 10
51.4957219914
 20
-32.742808611
 30
0.0
 11
-56.4909439983
 21
29.5965667339
 31
0.0
  0
LINE
  5
2D3
330
290
100
AcDbEntity
  8
0
  6
Continuous
 62
     7
370
    25
100
AcDbLine
 10
51.7678787693
 20
-32.7178890159
 30
0.0
 11
52.7897849318
 21
-42.7480433304
 31
0.0
  0
LINE
  5
2D4
330
290
100
AcDbEntity
  8
0
  6
Continuous
 62
     7
370
    25
100
AcDbLine
 10
56.4602671016
 20
-30.0090308914
 30
0.0
 11
51.7678787693
 21
-32.7178890159
 31
0.0
  0
LINE
  5
2D5
330
290
100
AcDbEntity
  8
0
  6
Continuous
 62
     7
370
    25
100
AcDbLine
 10
58.8447148142
 20
-39.2526067118
 30
0.0
 11
56.4602671016
 21
-30.0090308914
 31
0.0
  0
LINE
  5
2D6
330
290
100
AcDbEntity
  8
0
  6
Continuous
 62
     7
370
    25
100
AcDbLine
 10
52.7897849318
 20
-42.7480433304
 30
0.0
 11
58.8447148142
 21
-39.2526067118
 31
0.0
  0
LINE
  5
2D7
330
290
100
AcDbEntity
  8
0
  6
Continuous
 62
     7
370
    25
100
AcDbLine
 10
-42.6598609855
 20
-9.7565790866
 30
0.0
 11
51.0788666695
 21
-42.1428548095
 31
0.0
  0
LINE
  5
2D8
330
290
100
AcDbEntity
  8
0
  6
Continuous
 62
     7
370
    25
100
AcDbLine
 10
-56.3522689492
 20
29.8079029324
 30
0.0
 11
51.6343970404
 21
-32.5314724125
 31
0.0
  0
LINE
  5
2D9
330
290
100
AcDbEntity
  8
0
  6
Continuous
 62
     7
370
    25
100
AcDbLine
 10
51.6343970404
 20
-32.5314724125
 30
0.0
 11
56.3267853727
 21
-29.8226142879
 31
0.0
  0
LINE
  5
2DA
330
290
100
AcDbEntity
  8
0
  6
Continuous
 62
     7
370
    25
100
AcDbLine
 10
-51.6598806169
 20
32.516761057
 30
0.0
 11
-56.3522689492
 21
29.8079029324
 31
0.0
  0
LINE
  5
2DB
330
290
100
AcDbEntity
  8
0
  6
Continuous
 62
     7
370
    25
100
AcDbLine
 10
56.3267853727
 20
-29.8226142879
 30
0.0
 11
-51.6598806169
 21
32.516761057
 31
0.0
  0
ARC
  5
2DC
330
290
100
AcDbEntity
  8
0
  6
Continuous
 62
     7
370
    25
100
AcDbCircle
 10
56.3267853727
 20
-29.9859224503
 30
0.0
 40
0.2000000000000034
100
AcDbArc
 50
14.4645336217
 51
60.0026882664
  0
ARC
  5
2DD
330
290
100
AcDbEntity
  8
0
  6
Continuous
 62
     7
370
    25
100
AcDbCircle
 10
58.7112330854
 20
-39.2294982707
 30
0.0
 40
0.200000000001246
100
AcDbArc
 50
299.9973117336
 51
14.4645336216
  0
ARC
  5
2DE
330
290
100
AcDbEntity
  8
0
  6
Continuous
 62
     7
370
    25
100
AcDbCircle
 10
-56.3522689492
 20
29.64459477
 30
0.0
 40
0.200000000000104
100
AcDbArc
 50
119.9973117337
 51
152.756090891
  0
ARC
  5
2DF
330
290
100
AcDbEntity
  8
0
  6
Continuous
 62
     7
370
    25
100
AcDbCircle
 10
-51.6598806169
 20
32.3534528946
 30
0.0
 40
0.1999999999999449
100
AcDbArc
 50
60.0026882663
 51
119.9973117337
  0
ARC
  5
2E0
330
290
100
AcDbEntity
  8
0
  6
Continuous
 62
     7
370
    25
100
AcDbCircle
 10
52.5462377816
 20
-42.8901481885
 30
0.0
 40
0.115405497114549
100
AcDbArc
 50
247.9869992265
 51
267.5550215584
  0
ARC
  5
2E1
330
290
100
AcDbEntity
  8
0
  6
Continuous
 62
     7
370
    25
100
AcDbCircle
 10
51.5687642389
 20
-32.0419061209
 30
0.0
 40
0.7046981414750141
100
AcDbArc
 50
264.05058383
 51
286.4126312985
  0
ARC
  5
2E2
330
290
100
AcDbEntity
  8
0
  6
Continuous
 62
     7
370
    25
100
AcDbCircle
 10
52.4186080434
 20
-42.638376005
 30
0.0
 40
0.3870390222428925
100
AcDbArc
 50
288.4839625289
 51
343.5397826678
  0
ARC
  5
2E3
330
290
100
AcDbEntity
  8
0
  6
Continuous
 62
     7
370
    25
100
AcDbCircle
 10
-41.6273894911
 20
-6.9106475196
 30
0.0
 40
3.027428590463114
100
AcDbArc
 50
215.8503845467
 51
250.059806255
  0
ARC
  5
2E4
330
290
100
AcDbEntity
  8
0
  6
Continuous
 62
     7
370
    25
100
AcDbCircle
 10
46.3597413617
 20
58.0358549291
 30
0.0
 40
112.3880711230774
100
AcDbArc
 50
198.6773280292
 51
216.4167069037
  0
ARC
  5
2E5
330
290
100
AcDbEntity
  8
0
  6
Continuous
 62
     7
370
    25
100
AcDbCircle
 10
51.8045647451
 20
-32.794299577
 30
0.0
 40
0.3131056788507314
100
AcDbArc
 50
122.9210778513
 51
170.5345779066
  0
ARC
  5
2E6
330
290
100
AcDbEntity
  8
0
  6
Continuous
 62
     7
370
    25
100
AcDbCircle
 10
51.4644408612
 20
-32.7941652453
 30
0.0
 40
0.3128779750101766
100
AcDbArc
 50
14.1102825926
 51
57.0980681614
  0
ARC
  5
2E7
330
290
100
AcDbEntity
  8
0
  6
Continuous
 62
     7
370
    25
100
AcDbCircle
 10
-56.1821012445
 20
29.5450757679
 30
0.0
 40
0.3131056788508177
100
AcDbArc
 50
122.9210778513
 51
170.5345779066
  0
ARC
  5
2E8
330
290
100
AcDbEntity
  8
0
  6
Continuous
 62
     7
370
    25
100
AcDbCircle
 10
56.1568291935
 20
-30.0853071207
 30
0.0
 40
0.3128779750101933
100
AcDbArc
 50
14.1102825926
 51
57.0980681614
  0
ARC
  5
2E9
330
290
100
AcDbEntity
  8
0
  6
Continuous
 62
     7
370
    25
100
AcDbCircle
 10
-60.1216773357
 20
22.1814429655
 30
0.0
 40
0.2655990711628101
100
AcDbArc
 50
149.7151000965
 51
193.5197526441
  0
ARC
  5
2EA
330
290
100
AcDbEntity
  8
0
  6
Continuous
 62
     8
370
    25
100
AcDbCircle
 10
56.3853693837
 20
-29.9043905538
 30
0.0
 40
0.100595447180406
100
AcDbArc
 50
65.6928809539
 51
125.6175774752
  0
ARC
  5
2EB
330
290
100
AcDbEntity
  8
0
  6
Continuous
 62
     8
370
    25
100
AcDbCircle
 10
-51.6012966059
 20
32.4349847911
 30
0.0
 40
0.1005954471803816
100
AcDbArc
 50
65.6928809539
 51
125.6175774752
  0
ARC
  5
2EC
330
290
100
AcDbEntity
  8
0
  6
Continuous
 62
     8
370
    25
100
AcDbCircle
 10
-56.4107322081
 20
29.6943363717
 30
0.0
 40
0.1264627746118457
100
AcDbArc
 50
160.69207333
 51
230.6339930687
  0
ARC
  5
2ED
330
290
100
AcDbEntity
  8
0
  6
Continuous
 62
     8
370
    25
100
AcDbCircle
 10
-56.4106059165
 20
29.7286214484
 30
0.0
 40
0.0984314759351748
100
AcDbArc
 50
53.6535909779
 51
115.035950593
  0
ARC
  5
2EE
330
290
100
AcDbEntity
  8
0
  6
Continuous
 62
     8
370
    25
100
AcDbCircle
 10
-51.7182175842
 20
32.437479573
 30
0.0
 40
0.0984314759352761
100
AcDbArc
 50
53.6535909779
 51
115.035950593
  0
VIEWPORT
  5
498
330
290
100
AcDbEntity
  8
0
100
AcDbViewport
 10
0.0
 20
0.0
 30
0.0
 40
205.6
 41
156.0
 68
     1
 69
     1
 12
-8.0703420252
 22
-5.1585394371
 13
0.0
 23
0.0
 14
10.0
 24
10.0
 15
10.0
 25
10.0
 16
0.0
 26
0.0
 36
1.0
 17
0.0
 27
0.0
 37
0.0
 42
50.0
 43
0.0
 44
0.0
 45
63.7122628619
 50
0.0
 51
0.0
 72
   100
 90
   557152
  1

281
     0
 71
     1
 74
     0
110
0.0
120
0.0
130
0.0
111
1.0
121
0.0
131
0.0
112
0.0
122
1.0
132
0.0
 79
     0
146
0.0
  0
ENDBLK
  5
293
330
290
100
AcDbEntity
  8
0
100
AcDbBlockEnd
  0
BLOCK
  5
2F1
330
2EF
100
AcDbEntity
  8
0
100
AcDbBlockBegin
  2
*Paper_Space6
 70
     0
 10
0.0
 20
0.0
 30
0.0
  3
*Paper_Space6
  1

  0
SPLINE
  5
2F9
330
2EF
100
AcDbEntity
  8
0
  6
Continuous
 62
     7
370
    25
100
AcDbSpline
210
0.0
220
0.0
230
1.0
 70
     8
 71
     3
 72
    19
 73
    15
 74
     0
 42
0.000000001
 43
0.00000001
 40
0.0
 40
0.0
 40
0.0
 40
0.0
 40
0.0322239020998626
 40
0.1255196562406448
 40
0.2182375754860956
 40
0.3103896836438511
 40
0.4019922109330504
 40
0.4930629747779438
 40
0.5836213186647935
 40
0.6736880477694339
 40
0.7632853614297833
 40
0.8524367827120708
 40
0.9411670853118349
 40
1.0
 40
1.0
 40
1.0
 40
1.0
 10
-72.7703721655858
 20
7.611571482536683
 30
0.0
 10
-72.55617892928954
 20
7.287414925550019
 30
0.0
 10
-71.72184603857832
 20
6.024749110745098
 30
0.0
 10
-70.21757099491336
 20
3.872551770292052
 30
0.0
 10
-68.23441094986374
 20
1.186457912348407
 30
0.0
 10
-66.18980510717975
 20
-1.416592962993584
 30
0.0
 10
-64.08806055801989
 20
-3.937209929364914
 30
0.0
 10
-61.93030296336493
 20
-6.373609823347644
 30
0.0
 10
-59.71852126948215
 20
-8.724787064792071
 30
0.0
 10
-57.45437652710087
 20
-10.98947821204282
 30
0.0
 10
-55.13995582640347
 20
-13.16710734372977
 30
0.0
 10
-52.77593942568129
 20
-15.25502923224902
 30
0.0
 10
-50.63496017411226
 20
-17.03649358316661
 30
0.0
 10
-49.26889690927077
 20
-18.10094202474401
 30
0.0
 10
-48.72425248502895
 20
-18.52533372278539
 30
0.0
  0
SPLINE
  5
2FA
330
2EF
100
AcDbEntity
  8
0
  6
Continuous
 62
     7
370
    25
100
AcDbSpline
210
0.0
220
0.0
230
1.0
 70
     8
 71
     3
 72
    11
 73
     7
 74
     0
 42
0.000000001
 43
0.00000001
 40
0.0
 40
0.0
 40
0.0
 40
0.0
 40
0.1590873652643746
 40
0.4519549352822242
 40
0.7419861524271806
 40
1.0
 40
1.0
 40
1.0
 40
1.0
 10
-48.72425248502893
 20
-18.52533372278537
 30
0.0
 10
-48.63316537919142
 20
-18.59184239049957
 30
0.0
 10
-48.37439393649749
 20
-18.78078838606953
 30
0.0
 10
-47.91027639156884
 20
-19.02361693914024
 30
0.0
 10
-47.352193071527
 20
-19.21832883220966
 30
0.0
 10
-46.97299649234081
 20
-19.27053093697825
 30
0.0
 10
-46.7944747344035
 20
-19.29510713840737
 30
0.0
  0
LWPOLYLINE
  5
300
330
2EF
100
AcDbEntity
  8
0
  6
Continuous
 62
     7
370
    25
100
AcDbPolyline
 90
       11
 70
   128
 43
0.0
 10
66.184679225
 20
-29.7621581282
 10
66.3346872358
 20
-29.8115498767
 10
66.3834538797
 20
-29.8504056035
 10
66.3294727514
 20
-29.877525052
 10
66.174411332
 20
-29.8920705005
 10
65.9230594812
 20
-29.8935926388
 10
65.5831814772
 20
-29.8820444479
 10
65.1652761786
 20
-29.8577826525
 10
64.6822527129
 20
-29.8215567012
 10
64.1490317129
 20
-29.7744856166
 10
64.1318081531
 20
-29.7728617449
  0
SPLINE
  5
306
330
2EF
100
AcDbEntity
  8
0
  6
Continuous
 62
     7
370
    25
100
AcDbSpline
210
0.0
220
0.0
230
1.0
 70
     8
 71
     3
 72
    17
 73
    13
 74
     0
 42
0.000000001
 43
0.00000001
 40
0.0
 40
0.0
 40
0.0
 40
0.0
 40
0.1888331525910369
 40
0.5105960851002478
 40
0.6651968278676786
 40
0.7648930416670631
 40
0.8106481107149252
 40
0.8488312781633907
 40
0.8772436035677674
 40
0.9057035896550549
 40
0.9433107198558289
 40
1.0
 40
1.0
 40
1.0
 40
1.0
 10
-72.76956282528843
 20
7.612136657569187
 30
0.0
 10
-72.78930445279875
 20
7.639628160801599
 30
0.0
 10
-72.8426848978211
 20
7.713963910278768
 30
0.0
 10
-72.89931184658208
 20
7.819712791286704
 30
0.0
 10
-72.9391618072992
 20
7.914655693661831
 30
0.0
 10
-72.95229922620483
 20
7.966429947320152
 30
0.0
 10
-72.9533816340634
 20
7.99806657228925
 30
0.0
 10
-72.94928909002431
 20
8.016389581651984
 30
0.0
 10
-72.94083536211865
 20
8.028861197218735
 30
0.0
 10
-72.92841069881136
 20
8.036494627806654
 30
0.0
 10
-72.90922083321612
 20
8.03936838850096
 30
0.0
 10
-72.89411263687714
 20
8.036021179833279
 30
0.0
 10
-72.88502986509823
 20
8.034008899098854
 30
0.0
  0
SPLINE
  5
31A
330
2EF
100
AcDbEntity
  8
0
  6
Continuous
 62
     7
370
    25
100
AcDbSpline
210
0.0
220
0.0
230
1.0
 70
     8
 71
     3
 72
     8
 73
     4
 74
     0
 42
0.000000001
 43
0.00000001
 40
0.0
 40
0.0
 40
0.0
 40
0.0
 40
0.0000453377850437
 40
0.0000453377850437
 40
0.0000453377850437
 40
0.0000453377850437
 10
-73.19047218355286
 20
8.007157253851192
 30
0.0
 10
-73.20048732917297
 20
8.018340479548991
 30
0.0
 10
-73.20967671618928
 20
8.030181129124237
 30
0.0
 10
-73.21777127935
 20
8.042288762705263
 30
0.0
  0
LWPOLYLINE
  5
31B
330
2EF
100
AcDbEntity
  8
0
  6
Continuous
 62
     8
370
    25
100
AcDbPolyline
 90
        8
 70
   128
 43
0.0
 10
-46.7944747344
 20
-19.2951071384
 10
-46.7949131683
 20
-19.2950627127
 10
-46.8151210445
 20
-19.285908284
 10
-46.8325956031
 20
-19.2635968133
 10
-46.8461262305
 20
-19.2296740089
 10
-46.8547755434
 20
-19.1864899963
 10
-46.8579443291
 20
-19.1370365048
 10
-46.8554130587
 20
-19.0847396047
  0
LWPOLYLINE
  5
31D
330
2EF
100
AcDbEntity
  8
0
  6
Continuous
 62
     8
370
    25
100
AcDbPolyline
 90
        5
 70
   128
 43
0.0
 10
72.2449386146
 20
-26.0286856193
 10
72.2456208795
 20
-26.0311894558
 10
72.2449119064
 20
-26.0458993258
 10
72.2369027288
 20
-26.0623487031
 10
72.2219011348
 20
-26.0799054474
  0
LWPOLYLINE
  5
31E
330
2EF
100
AcDbEntity
  8
0
  6
Continuous
 62
     8
370
    25
100
AcDbPolyline
 90
        5
 70
   128
 43
0.0
 10
69.262576087
 20
-16.9596590009
 10
69.2632583519
 20
-16.9621628374
 10
69.2625493788
 20
-16.9768727075
 10
69.2545402012
 20
-16.9933220848
 10
69.2395386072
 20
-17.010878829
  0
LWPOLYLINE
  5
321
330
2EF
100
AcDbEntity
  8
0
  6
Continuous
 62
     8
370
    25
100
AcDbPolyline
 90
        7
 70
   128
 43
0.0
 10
-48.7242818279
 20
-18.52531112
 10
-48.7277326661
 20
-18.5221048327
 10
-48.7359960005
 20
-18.50292061
 10
-48.7352072912
 20
-18.474519043
 10
-48.725419946
 20
-18.4388233641
 10
-48.7072967222
 20
-18.398250732
 10
-48.6820648468
 20
-18.3555485515
  0
LWPOLYLINE
  5
322
330
2EF
100
AcDbEntity
  8
0
  6
Continuous
 62
     8
370
    25
100
AcDbPolyline
 90
        8
 70
   128
 43
0.0
 10
-69.1809313537
 20
16.6071427661
 10
-69.209511106
 20
16.6279332452
 10
-69.2338472835
 20
16.6499575589
 10
-69.2530800441
 20
16.6724375475
 10
-69.266529859
 20
16.6945789516
 10
-69.2737215216
 20
16.7155994748
 10
-69.2744009371
 20
16.7347564231
 10
-69.2706720521
 20
16.7473661273
  0
LINE
  5
325
330
2EF
100
AcDbEntity
  8
0
  6
Continuous
 62
     7
370
    25
100
AcDbLine
 10
-46.7944747344
 20
-19.2951071384
 30
0.0
 11
64.1318081531
 21
-29.7728617449
 31
0.0
  0
LINE
  5
326
330
2EF
100
AcDbEntity
  8
0
  6
Continuous
 62
     7
370
    25
100
AcDbLine
 10
68.1037717594
 20
-30.2271069722
 30
0.0
 11
72.1946436796
 21
-26.2342905667
 31
0.0
  0
LINE
  5
327
330
2EF
100
AcDbEntity
  8
0
  6
Continuous
 62
     7
370
    25
100
AcDbLine
 10
72.2449386146
 20
-26.0286856193
 30
0.0
 11
69.262576087
 21
-16.9596590009
 31
0.0
  0
LINE
  5
328
330
2EF
100
AcDbEntity
  8
0
  6
Continuous
 62
     7
370
    25
100
AcDbLine
 10
69.1250385586
 20
-16.8291385059
 30
0.0
 11
-65.939942915
 21
19.8786293661
 31
0.0
  0
LINE
  5
329
330
2EF
100
AcDbEntity
  8
0
  6
Continuous
 62
     7
370
    25
100
AcDbLine
 10
-69.2706720521
 20
16.7473661273
 30
0.0
 11
-73.2095508893
 21
8.2989421375
 31
0.0
  0
LINE
  5
32A
330
2EF
100
AcDbEntity
  8
0
  6
Continuous
 62
     7
370
    25
100
AcDbLine
 10
-66.132091585
 20
19.8287564729
 30
0.0
 11
-69.2291004895
 21
16.8059808389
 31
0.0
  0
LINE
  5
32B
330
2EF
100
AcDbEntity
  8
0
  6
Continuous
 62
     7
370
    25
100
AcDbLine
 10
-46.8554130587
 20
-19.0847396047
 30
0.0
 11
66.184679225
 21
-29.7621581282
 31
0.0
  0
LINE
  5
32C
330
2EF
100
AcDbEntity
  8
0
  6
Continuous
 62
     7
370
    25
100
AcDbLine
 10
-72.8850298651
 20
8.0340088991
 30
0.0
 11
66.184679225
 21
-29.7621581282
 31
0.0
  0
LINE
  5
32D
330
2EF
100
AcDbEntity
  8
0
  6
Continuous
 62
     7
370
    25
100
AcDbLine
 10
68.0154086927
 20
-30.2779359874
 30
0.0
 11
65.8840501198
 21
-20.100625106
 31
0.0
  0
LINE
  5
32E
330
2EF
100
AcDbEntity
  8
0
  6
Continuous
 62
     7
370
    25
100
AcDbLine
 10
-72.5971136208
 20
7.3487533394
 30
0.0
 11
-73.1904721836
 21
8.0071572539
 31
0.0
  0
LINE
  5
32F
330
2EF
100
AcDbEntity
  8
0
  6
Continuous
 62
     7
370
    25
100
AcDbLine
 10
-69.1809313537
 20
16.6071427661
 30
0.0
 11
-73.1904721836
 21
8.0071572539
 31
0.0
  0
LINE
  5
330
330
2EF
100
AcDbEntity
  8
0
  6
Continuous
 62
     7
370
    25
100
AcDbLine
 10
65.8840501198
 20
-20.100625106
 30
0.0
 11
-69.1809313537
 21
16.6071427661
 31
0.0
  0
LINE
  5
331
330
2EF
100
AcDbEntity
  8
0
  6
Continuous
 62
     7
370
    25
100
AcDbLine
 10
67.9686422181
 20
-30.2789594936
 30
0.0
 11
63.2902294479
 21
-29.6933688157
 31
0.0
  0
LINE
  5
332
330
2EF
100
AcDbEntity
  8
0
  6
Continuous
 62
     7
370
    25
100
AcDbLine
 10
66.1425297027
 20
-20.033654463
 30
0.0
 11
68.2256053396
 21
-29.9804126556
 31
0.0
  0
LINE
  5
333
330
2EF
100
AcDbEntity
  8
0
  6
Continuous
 62
     7
370
    25
100
AcDbLine
 10
69.2395386072
 20
-17.010878829
 30
0.0
 11
66.1425297027
 21
-20.033654463
 31
0.0
  0
LINE
  5
334
330
2EF
100
AcDbEntity
  8
0
  6
Continuous
 62
     7
370
    25
100
AcDbLine
 10
72.2219011348
 20
-26.0799054474
 30
0.0
 11
69.2395386072
 21
-17.010878829
 31
0.0
  0
LINE
  5
335
330
2EF
100
AcDbEntity
  8
0
  6
Continuous
 62
     7
370
    25
100
AcDbLine
 10
68.2256053396
 20
-29.9804126556
 30
0.0
 11
72.2219011348
 21
-26.0799054474
 31
0.0
  0
LINE
  5
336
330
2EF
100
AcDbEntity
  8
0
  6
Continuous
 62
     7
370
    25
100
AcDbLine
 10
-69.0894048578
 20
16.8342880245
 30
0.0
 11
65.9755766157
 21
-19.8734798475
 31
0.0
  0
LINE
  5
337
330
2EF
100
AcDbEntity
  8
0
  6
Continuous
 62
     7
370
    25
100
AcDbLine
 10
65.9755766157
 20
-19.8734798475
 30
0.0
 11
69.0725855202
 21
-16.8507042136
 31
0.0
  0
LINE
  5
338
330
2EF
100
AcDbEntity
  8
0
  6
Continuous
 62
     7
370
    25
100
AcDbLine
 10
-65.9923959533
 20
19.8570636585
 30
0.0
 11
-69.0894048578
 21
16.8342880245
 31
0.0
  0
LINE
  5
339
330
2EF
100
AcDbEntity
  8
0
  6
Continuous
 62
     7
370
    25
100
AcDbLine
 10
69.0725855202
 20
-16.8507042136
 30
0.0
 11
-65.9923959533
 21
19.8570636585
 31
0.0
  0
ARC
  5
33A
330
2EF
100
AcDbEntity
  8
0
  6
Continuous
 62
     7
370
    25
100
AcDbCircle
 10
69.0725855202
 20
-17.0221376737
 30
0.0
 40
0.200000000000012
100
AcDbArc
 50
18.2035250685
 51
74.7954868413
  0
ARC
  5
33B
330
2EF
100
AcDbEntity
  8
0
  6
Continuous
 62
     7
370
    25
100
AcDbCircle
 10
72.0549480478
 20
-26.0911642921
 30
0.0
 40
0.1999999999999741
100
AcDbArc
 50
314.305033619
 51
18.2035250685
  0
ARC
  5
33C
330
2EF
100
AcDbEntity
  8
0
  6
Continuous
 62
     7
370
    25
100
AcDbCircle
 10
-69.0894048578
 20
16.6628545644
 30
0.0
 40
0.1999999999998037
100
AcDbArc
 50
134.305033619
 51
155.0038213433
  0
ARC
  5
33D
330
2EF
100
AcDbEntity
  8
0
  6
Continuous
 62
     7
370
    25
100
AcDbCircle
 10
-65.9923959533
 20
19.6856301983
 30
0.0
 40
0.1999999999999764
100
AcDbArc
 50
74.7954868413
 51
134.305033619
  0
ARC
  5
33E
330
2EF
100
AcDbEntity
  8
0
  6
Continuous
 62
     7
370
    25
100
AcDbCircle
 10
-46.5126096869
 20
-15.5734916893
 30
0.0
 40
3.527942187043057
100
AcDbArc
 50
232.0528019345
 51
264.4238808603
  0
ARC
  5
33F
330
2EF
100
AcDbEntity
  8
0
  6
Continuous
 62
     7
370
    25
100
AcDbCircle
 10
17.408203656
 20
66.5521498771
 30
0.0
 40
107.5975875343137
100
AcDbArc
 50
212.9468686569
 51
232.1036015578
  0
ARC
  5
340
330
2EF
100
AcDbEntity
  8
0
  6
Continuous
 62
     7
370
    25
100
AcDbCircle
 10
67.9886225967
 20
-30.1229628855
 30
0.0
 40
0.1572709676882949
100
AcDbArc
 50
262.7011736202
 51
279.8063159016
  0
ARC
  5
341
330
2EF
100
AcDbEntity
  8
0
  6
Continuous
 62
     7
370
    25
100
AcDbCircle
 10
65.8261599278
 20
-19.344893769
 30
0.0
 40
0.7579453331298948
100
AcDbArc
 50
274.3803911504
 51
294.6708293453
  0
ARC
  5
342
330
2EF
100
AcDbEntity
  8
0
  6
Continuous
 62
     7
370
    25
100
AcDbCircle
 10
67.8684479349
 20
-29.9510976195
 30
0.0
 40
0.3583584561456599
100
AcDbArc
 50
294.2107582978
 51
355.3077518429
  0
ARC
  5
343
330
2EF
100
AcDbEntity
  8
0
  6
Continuous
 62
     7
370
    25
100
AcDbCircle
 10
66.2823977143
 20
-20.1291237222
 30
0.0
 40
0.399365718542759
100
AcDbArc
 50
140.1988787111
 51
175.9079126138
  0
ARC
  5
344
330
2EF
100
AcDbEntity
  8
0
  6
Continuous
 62
     7
370
    25
100
AcDbCircle
 10
65.9043549517
 20
-20.1148120767
 30
0.0
 40
0.2516222769399278
100
AcDbArc
 50
18.8164501951
 51
73.5576821991
  0
ARC
  5
345
330
2EF
100
AcDbEntity
  8
0
  6
Continuous
 62
     7
370
    25
100
AcDbCircle
 10
-68.7825837593
 20
16.5786441498
 30
0.0
 40
0.3993657185428002
100
AcDbArc
 50
140.1988787111
 51
175.9079126138
  0
ARC
  5
346
330
2EF
100
AcDbEntity
  8
0
  6
Continuous
 62
     7
370
    25
100
AcDbCircle
 10
69.0013638562
 20
-17.0920364427
 30
0.0
 40
0.2516222769399312
100
AcDbArc
 50
18.8164501951
 51
73.5576821991
  0
ARC
  5
347
330
2EF
100
AcDbEntity
  8
0
  6
Continuous
 62
     7
370
    25
100
AcDbCircle
 10
-72.9715045505
 20
8.1628593816
 30
0.0
 40
0.2741980596113556
100
AcDbArc
 50
150.2449086765
 51
206.0860751308
  0
ARC
  5
348
330
2EF
100
AcDbEntity
  8
0
  6
Continuous
 62
     8
370
    25
100
AcDbCircle
 10
72.0852820882
 20
-26.1353834588
 30
0.0
 40
0.1474536321597955
100
AcDbArc
 50
317.873669625
 51
22.1009970283
  0
ARC
  5
349
330
2EF
100
AcDbEntity
  8
0
  6
Continuous
 62
     8
370
    25
100
AcDbCircle
 10
69.1163270899
 20
-16.8825222163
 30
0.0
 40
0.0540898346880938
100
AcDbArc
 50
80.7318299955
 51
143.9675277133
  0
ARC
  5
34A
330
2EF
100
AcDbEntity
  8
0
  6
Continuous
 62
     8
370
    25
100
AcDbCircle
 10
-65.9486543836
 20
19.8252456558
 30
0.0
 40
0.0540898346883357
100
AcDbArc
 50
80.7318299957
 51
143.9675277131
  0
ARC
  5
34B
330
2EF
100
AcDbEntity
  8
0
  6
Continuous
 62
     8
370
    25
100
AcDbCircle
 10
-69.1346391602
 20
16.698667029
 30
0.0
 40
0.1429657180047028
100
AcDbArc
 50
71.5546702156
 51
131.3553518555
  0
ARC
  5
34C
330
2EF
100
AcDbEntity
  8
0
  6
Continuous
 62
     8
370
    25
100
AcDbCircle
 10
-66.0376302557
 20
19.721442663
 30
0.0
 40
0.1429657180047747
100
AcDbArc
 50
71.5546702156
 51
131.3553518555
  0
VIEWPORT
  5
49A
330
2EF
100
AcDbEntity
  8
0
100
AcDbViewport
 10
0.0
 20
0.0
 30
0.0
 40
205.6
 41
156.0
 68
     1
 69
     1
 12
-8.0703420252
 22
-5.1585394371
 13
0.0
 23
0.0
 14
10.0
 24
10.0
 15
10.0
 25
10.0
 16
0.0
 26
0.0
 36
1.0
 17
0.0
 27
0.0
 37
0.0
 42
50.0
 43
0.0
 44
0.0
 45
63.7122628619
 50
0.0
 51
0.0
 72
   100
 90
   557152
  1

281
     0
 71
     1
 74
     0
110
0.0
120
0.0
130
0.0
111
1.0
121
0.0
131
0.0
112
0.0
122
1.0
132
0.0
 79
     0
146
0.0
  0
ENDBLK
  5
2F2
330
2EF
100
AcDbEntity
  8
0
100
AcDbBlockEnd
  0
BLOCK
  5
34F
330
34D
100
AcDbEntity
  8
0
100
AcDbBlockBegin
  2
*Paper_Space7
 70
     0
 10
0.0
 20
0.0
 30
0.0
  3
*Paper_Space7
  1

  0
LWPOLYLINE
  5
35E
330
34D
100
AcDbEntity
  8
0
  6
Continuous
 62
     7
370
    25
100
AcDbPolyline
 90
       12
 70
   128
 43
0.0
 10
70.7712244907
 20
-20.3043423747
 10
70.9301301456
 20
-20.3333435564
 10
70.9824452514
 20
-20.3666000708
 10
70.9265537904
 20
-20.4030846216
 10
70.7641822542
 20
-20.4416701982
 10
70.5003463123
 20
-20.481164889
 10
70.1431958778
 20
-20.5203486999
 10
69.7037633557
 20
-20.55801124
 10
69.1956228513
 20
-20.5929891104
 10
68.6344708648
 20
-20.6242018419
 10
68.0376414253
 20
-20.6506852708
 10
67.8725878238
 20
-20.65692104
  0
SPLINE
  5
364
330
34D
100
AcDbEntity
  8
0
  6
Continuous
 62
     7
370
    25
100
AcDbSpline
210
0.0
220
0.0
230
1.0
 70
     8
 71
     3
 72
    17
 73
    13
 74
     0
 42
0.000000001
 43
0.00000001
 40
0.0
 40
0.0
 40
0.0
 40
0.0
 40
0.3940241489623366
 40
0.6343946319060763
 40
0.7498879080043243
 40
0.8243651850223487
 40
0.8585461516066332
 40
0.8870705883039727
 40
0.9082957938481485
 40
0.9295566039328452
 40
0.9576507165081942
 40
1.0
 40
1.0
 40
1.0
 40
1.0
 10
-76.07074694035899
 20
-2.33711088032704
 30
0.0
 10
-76.1316250392009
 20
-2.265828269373903
 30
0.0
 10
-76.22964121208695
 20
-2.151060416043061
 30
0.0
 10
-76.3263901987095
 20
-1.99923019394135
 30
0.0
 10
-76.3707224176441
 20
-1.905809777417604
 30
0.0
 10
-76.3860305949817
 20
-1.853700834752557
 30
0.0
 10
-76.38807456024648
 20
-1.820796525175502
 30
0.0
 10
-76.3843055505271
 20
-1.801029188069823
 30
0.0
 10
-76.37578919471534
 20
-1.786719453300263
 30
0.0
 10
-76.36296488442187
 20
-1.776867663116495
 30
0.0
 10
-76.34290122517977
 20
-1.770970284796013
 30
0.0
 10
-76.32694371199936
 20
-1.772190346936892
 30
0.0
 10
-76.31735034644306
 20
-1.77292382601891
 30
0.0
  0
LWPOLYLINE
  5
377
330
34D
100
AcDbEntity
  8
0
  6
Continuous
 62
     7
370
    25
100
AcDbPolyline
 90
        9
 70
   128
 43
0.0
 10
-49.3230768674
 20
-24.3544897436
 10
-49.3475336409
 20
-24.3606268401
 10
-49.3664162727
 20
-24.3546993965
 10
-49.3784461121
 20
-24.3371087939
 10
-49.3828085496
 20
-24.3090461926
 10
-49.3792081798
 20
-24.2724118718
 10
-49.3678888043
 20
-24.2296865508
 10
-49.3496169227
 20
-24.1837634053
 10
-49.3256298286
 20
-24.1377521542
  0
SPLINE
  5
37B
330
34D
100
AcDbEntity
  8
0
  6
Continuous
 62
     7
370
    25
100
AcDbSpline
210
0.0
220
0.0
230
1.0
 70
     8
 71
     3
 72
     8
 73
     4
 74
     0
 42
0.000000001
 43
0.00000001
 40
0.0
 40
0.0
 40
0.0
 40
0.0
 40
0.0000453377850437
 40
0.0000453377850437
 40
0.0000453377850437
 40
0.0000453377850437
 10
-76.63724403282664
 20
-1.847048777677124
 30
0.0
 10
-76.64808008191055
 20
-1.836870781257521
 30
0.0
 10
-76.6582670756544
 20
-1.826259769372189
 30
0.0
 10
-76.66750001826165
 20
-1.815561758619176
 30
0.0
  0
LWPOLYLINE
  5
37C
330
34D
100
AcDbEntity
  8
0
  6
Continuous
 62
     8
370
    25
100
AcDbPolyline
 90
        8
 70
   128
 43
0.0
 10
-47.3095948099
 20
-24.8505879257
 10
-47.3231635951
 20
-24.846102145
 10
-47.3387313162
 20
-24.8283327591
 10
-47.3527846389
 20
-24.7982586286
 10
-47.3643499683
 20
-24.7579632483
 10
-47.3726260741
 20
-24.710238227
 10
-47.3770395991
 20
-24.6583898889
 10
-47.3772847802
 20
-24.606010216
  0
LWPOLYLINE
  5
37E
330
34D
100
AcDbEntity
  8
0
  6
Continuous
 62
     8
370
    25
100
AcDbPolyline
 90
        4
 70
   128
 43
0.0
 10
75.9372925292
 20
-17.5763758942
 10
75.9377180049
 20
-17.5786523254
 10
75.9345015705
 20
-17.5880720479
 10
75.9240995315
 20
-17.5994686228
  0
LWPOLYLINE
  5
37F
330
34D
100
AcDbEntity
  8
0
  6
Continuous
 62
     8
370
    25
100
AcDbPolyline
 90
        4
 70
   128
 43
0.0
 10
72.7829646982
 20
-8.0953576082
 10
72.7833901739
 20
-8.0976340394
 10
72.7801737395
 20
-8.1070537619
 10
72.7697717005
 20
-8.1184503368
  0
LWPOLYLINE
  5
380
330
34D
100
AcDbEntity
  8
0
  6
Continuous
 62
     8
370
    25
100
AcDbPolyline
 90
        3
 70
   128
 43
0.0
 10
72.6181919709
 20
-7.9600635071
 10
72.6069869399
 20
-7.9613901903
 10
72.5931919709
 20
-7.9699330471
  0
LWPOLYLINE
  5
381
330
34D
100
AcDbEntity
  8
0
  6
Continuous
 62
     8
370
    25
100
AcDbPolyline
 90
        3
 70
   128
 43
0.0
 10
-70.2347395936
 20
10.0377141494
 10
-70.2459446246
 20
10.0363874662
 10
-70.2597395935
 20
10.0278446094
  0
LWPOLYLINE
  5
382
330
34D
100
AcDbEntity
  8
0
  6
Continuous
 62
     8
370
    25
100
AcDbPolyline
 90
        8
 70
   128
 43
0.0
 10
-72.6752712837
 20
7.7459641021
 10
-72.7063178902
 20
7.7625381999
 10
-72.7338177405
 20
7.7793806725
 10
-72.7567992143
 20
7.7958964446
 10
-72.7744503339
 20
7.8115019834
 10
-72.7861474526
 20
7.8256459165
 10
-72.7914772897
 20
7.8378285128
 10
-72.790788483
 20
7.8464801647
  0
LINE
  5
385
330
34D
100
AcDbEntity
  8
0
  6
Continuous
 62
     7
370
    25
100
AcDbLine
 10
-47.3095948099
 20
-24.8505879257
 30
0.0
 11
67.8725878238
 21
-20.65692104
 31
0.0
  0
LINE
  5
386
330
34D
100
AcDbEntity
  8
0
  6
Continuous
 62
     7
370
    25
100
AcDbLine
 10
72.7754800458
 20
-20.527272502
 30
0.0
 11
75.8798073675
 21
-17.7895131414
 31
0.0
  0
LINE
  5
387
330
34D
100
AcDbEntity
  8
0
  6
Continuous
 62
     7
370
    25
100
AcDbLine
 10
75.9372925292
 20
-17.5763758942
 30
0.0
 11
72.7829646982
 21
-8.0953576082
 31
0.0
  0
LINE
  5
388
330
34D
100
AcDbEntity
  8
0
  6
Continuous
 62
     7
370
    25
100
AcDbLine
 10
72.6181919709
 20
-7.9600635071
 30
0.0
 11
-70.2347395936
 21
10.0377141494
 31
0.0
  0
LINE
  5
389
330
34D
100
AcDbEntity
  8
0
  6
Continuous
 62
     7
370
    25
100
AcDbLine
 10
-76.0705565229
 20
-2.3369629638
 30
0.0
 11
-75.8575544185
 21
-2.5836932525
 31
0.0
  0
LINE
  5
38A
330
34D
100
AcDbEntity
  8
0
  6
Continuous
 62
     7
370
    25
100
AcDbLine
 10
-72.790788483
 20
7.8464801647
 30
0.0
 11
-76.6808749949
 21
-1.5724765962
 31
0.0
  0
LINE
  5
38B
330
34D
100
AcDbEntity
  8
0
  6
Continuous
 62
     7
370
    25
100
AcDbLine
 10
-70.3920271591
 20
9.9892828011
 30
0.0
 11
-72.7382213247
 21
7.9201340378
 31
0.0
  0
LINE
  5
38C
330
34D
100
AcDbEntity
  8
0
  6
Continuous
 62
     7
370
    25
100
AcDbLine
 10
-47.3772847802
 20
-24.606010216
 30
0.0
 11
70.7712244907
 21
-20.3043423747
 31
0.0
  0
LINE
  5
38D
330
34D
100
AcDbEntity
  8
0
  6
Continuous
 62
     7
370
    25
100
AcDbLine
 10
-76.3173503464
 20
-1.772923826
 30
0.0
 11
70.7712244907
 21
-20.3043423747
 31
0.0
  0
LINE
  5
38E
330
34D
100
AcDbEntity
  8
0
  6
Continuous
 62
     7
370
    25
100
AcDbLine
 10
72.708039526
 20
-20.5673399565
 30
0.0
 11
70.1776602808
 21
-10.2518135544
 31
0.0
  0
LINE
  5
38F
330
34D
100
AcDbEntity
  8
0
  6
Continuous
 62
     7
370
    25
100
AcDbLine
 10
-75.7478819604
 20
-2.6742911807
 30
0.0
 11
-76.6372440328
 21
-1.8470487777
 31
0.0
  0
LINE
  5
390
330
34D
100
AcDbEntity
  8
0
  6
Continuous
 62
     7
370
    25
100
AcDbLine
 10
-72.6752712837
 20
7.7459641021
 30
0.0
 11
-76.6372440328
 21
-1.8470487777
 31
0.0
  0
LINE
  5
391
330
34D
100
AcDbEntity
  8
0
  6
Continuous
 62
     7
370
    25
100
AcDbLine
 10
70.1776602808
 20
-10.2518135544
 30
0.0
 11
-72.6752712837
 21
7.7459641021
 31
0.0
  0
LINE
  5
392
330
34D
100
AcDbEntity
  8
0
  6
Continuous
 62
     7
370
    25
100
AcDbLine
 10
72.6589715615
 20
-20.5754620611
 30
0.0
 11
67.3386705229
 21
-20.6763604295
 31
0.0
  0
LINE
  5
393
330
34D
100
AcDbEntity
  8
0
  6
Continuous
 62
     7
370
    25
100
AcDbLine
 10
70.4235775349
 20
-10.1875991
 30
0.0
 11
72.896634591
 21
-20.2694417347
 31
0.0
  0
LINE
  5
394
330
34D
100
AcDbEntity
  8
0
  6
Continuous
 62
     7
370
    25
100
AcDbLine
 10
72.7697717005
 20
-8.1184503368
 30
0.0
 11
70.4235775349
 21
-10.1875991
 31
0.0
  0
LINE
  5
395
330
34D
100
AcDbEntity
  8
0
  6
Continuous
 62
     7
370
    25
100
AcDbLine
 10
75.9240995315
 20
-17.5994686228
 30
0.0
 11
72.7697717005
 21
-8.1184503368
 31
0.0
  0
LINE
  5
396
330
34D
100
AcDbEntity
  8
0
  6
Continuous
 62
     7
370
    25
100
AcDbLine
 10
72.896634591
 20
-20.2694417347
 30
0.0
 11
75.9240995315
 21
-17.5994686228
 31
0.0
  0
LINE
  5
397
330
34D
100
AcDbEntity
  8
0
  6
Continuous
 62
     7
370
    25
100
AcDbLine
 10
-72.6059337592
 20
7.9586958461
 30
0.0
 11
70.2469978053
 21
-10.0390818104
 31
0.0
  0
LINE
  5
398
330
34D
100
AcDbEntity
  8
0
  6
Continuous
 62
     7
370
    25
100
AcDbLine
 10
70.2469978053
 20
-10.0390818104
 30
0.0
 11
72.5931919709
 21
-7.9699330471
 31
0.0
  0
LINE
  5
399
330
34D
100
AcDbEntity
  8
0
  6
Continuous
 62
     7
370
    25
100
AcDbLine
 10
-70.2597395935
 20
10.0278446094
 30
0.0
 11
-72.6059337592
 21
7.9586958461
 31
0.0
  0
LINE
  5
39A
330
34D
100
AcDbEntity
  8
0
  6
Continuous
 62
     7
370
    25
100
AcDbLine
 10
72.5931919709
 20
-7.9699330471
 30
0.0
 11
-70.2597395935
 21
10.0278446094
 31
0.0
  0
ARC
  5
39B
330
34D
100
AcDbEntity
  8
0
  6
Continuous
 62
     7
370
    25
100
AcDbCircle
 10
72.5931919709
 20
-8.1584948554
 30
0.0
 40
0.2000000000000433
100
AcDbArc
 50
18.4022461964
 51
82.8192442221
  0
ARC
  5
39C
330
34D
100
AcDbEntity
  8
0
  6
Continuous
 62
     7
370
    25
100
AcDbCircle
 10
75.7475198019
 20
-17.6395131414
 30
0.0
 40
0.2000000000000872
100
AcDbArc
 50
311.40962211
 51
18.4022461964
  0
ARC
  5
39D
330
34D
100
AcDbEntity
  8
0
  6
Continuous
 62
     7
370
    25
100
AcDbCircle
 10
-72.6059337592
 20
7.7701340378
 30
0.0
 40
0.2000000000002383
100
AcDbArc
 50
131.40962211
 51
157.5590766013
  0
ARC
  5
39E
330
34D
100
AcDbEntity
  8
0
  6
Continuous
 62
     7
370
    25
100
AcDbCircle
 10
-70.2597395935
 20
9.8392828011
 30
0.0
 40
0.1999999999999394
100
AcDbArc
 50
82.8192442221
 51
131.40962211
  0
ARC
  5
39F
330
34D
100
AcDbEntity
  8
0
  6
Continuous
 62
     7
370
    25
100
AcDbCircle
 10
-47.5236569219
 20
-20.9275394694
 30
0.0
 40
3.681381783740059
100
AcDbArc
 50
240.6934096094
 51
272.2786871021
  0
ARC
  5
3A0
330
34D
100
AcDbEntity
  8
0
  6
Continuous
 62
     7
370
    25
100
AcDbCircle
 10
-0.1265654365
 20
62.7100710727
 30
0.0
 40
99.81529109461243
100
AcDbArc
 50
220.2424357607
 51
240.468560095
  0
ARC
  5
3A1
330
34D
100
AcDbEntity
  8
0
  6
Continuous
 62
     7
370
    25
100
AcDbCircle
 10
72.6557849804
 20
-20.4039331316
 30
0.0
 40
0.1715585263029186
100
AcDbArc
 50
271.0642907288
 51
287.733335685
  0
ARC
  5
3A2
330
34D
100
AcDbEntity
  8
0
  6
Continuous
 62
     7
370
    25
100
AcDbCircle
 10
69.4069425081
 20
-6.7972612039
 30
0.0
 40
3.539482706247313
100
AcDbArc
 50
282.5768378831
 51
286.6920136359
  0
ARC
  5
3A3
330
34D
100
AcDbEntity
  8
0
  6
Continuous
 62
     7
370
    25
100
AcDbCircle
 10
72.551383032
 20
-20.2595154731
 30
0.0
 40
0.3453942236136665
100
AcDbArc
 50
296.9722253882
 51
358.3531536639
  0
ARC
  5
3A4
330
34D
100
AcDbEntity
  8
0
  6
Continuous
 62
     7
370
    25
100
AcDbCircle
 10
70.5363914106
 20
-10.2510721742
 30
0.0
 40
0.3587318959039062
100
AcDbArc
 50
143.7759933818
 51
180.1184115161
  0
ARC
  5
3A5
330
34D
100
AcDbEntity
  8
0
  6
Continuous
 62
     7
370
    25
100
AcDbCircle
 10
70.2150137949
 20
-10.2563401585
 30
0.0
 40
0.2196000154093908
100
AcDbArc
 50
18.2418357385
 51
81.62527194
  0
ARC
  5
3A6
330
34D
100
AcDbEntity
  8
0
  6
Continuous
 62
     7
370
    25
100
AcDbCircle
 10
-72.3165401539
 20
7.7467054823
 30
0.0
 40
0.3587318959038924
100
AcDbArc
 50
143.7759933818
 51
180.1184115161
  0
ARC
  5
3A7
330
34D
100
AcDbEntity
  8
0
  6
Continuous
 62
     7
370
    25
100
AcDbCircle
 10
72.5612079605
 20
-8.1871913953
 30
0.0
 40
0.219600015409422
100
AcDbArc
 50
18.2418357385
 51
81.62527194
  0
ARC
  5
3A8
330
34D
100
AcDbEntity
  8
0
  6
Continuous
 62
     7
370
    25
100
AcDbCircle
 10
-0.1454223891
 20
62.529428594
 30
0.0
 40
99.83615059532781
100
AcDbArc
 50
220.7762915122
 51
240.4894613339
  0
ARC
  5
3A9
330
34D
100
AcDbEntity
  8
0
  6
Continuous
 62
     7
370
    25
100
AcDbCircle
 10
-47.440007479
 20
-20.9739752002
 30
0.0
 40
3.86960319670228
100
AcDbArc
 50
240.8806048094
 51
272.1945574188
  0
ARC
  5
3AA
330
34D
100
AcDbEntity
  8
0
  6
Continuous
 62
     7
370
    25
100
AcDbCircle
 10
-76.4687564064
 20
-1.6827159941
 30
0.0
 40
0.239054429789445
100
AcDbArc
 50
152.5388094006
 51
213.7598702704
  0
ARC
  5
3AB
330
34D
100
AcDbEntity
  8
0
  6
Continuous
 62
     8
370
    25
100
AcDbCircle
 10
75.7605938773
 20
-17.6615453312
 30
0.0
 40
0.1748931579678566
100
AcDbArc
 50
312.9716263945
 51
20.7898130598
  0
ARC
  5
3AC
330
34D
100
AcDbEntity
  8
0
  6
Continuous
 62
     8
370
    25
100
AcDbCircle
 10
-72.6298023622
 20
7.7943885322
 30
0.0
 40
0.1660319355691891
100
AcDbArc
 50
81.7345715003
 51
130.7682222633
  0
ARC
  5
3AD
330
34D
100
AcDbEntity
  8
0
  6
Continuous
 62
     8
370
    25
100
AcDbCircle
 10
-70.2836081965
 20
9.8635372955
 30
0.0
 40
0.166031935568873
100
AcDbArc
 50
81.7345715002
 51
130.7682222634
  0
VIEWPORT
  5
49C
330
34D
100
AcDbEntity
  8
0
100
AcDbViewport
 10
0.0
 20
0.0
 30
0.0
 40
205.6
 41
156.0
 68
     1
 69
     1
 12
-8.0703420252
 22
-5.1585394371
 13
0.0
 23
0.0
 14
10.0
 24
10.0
 15
10.0
 25
10.0
 16
0.0
 26
0.0
 36
1.0
 17
0.0
 27
0.0
 37
0.0
 42
50.0
 43
0.0
 44
0.0
 45
63.7122628619
 50
0.0
 51
0.0
 72
   100
 90
   557152
  1

281
     0
 71
     1
 74
     0
110
0.0
120
0.0
130
0.0
111
1.0
121
0.0
131
0.0
112
0.0
122
1.0
132
0.0
 79
     0
146
0.0
  0
ENDBLK
  5
350
330
34D
100
AcDbEntity
  8
0
100
AcDbBlockEnd
  0
BLOCK
  5
3B0
330
3AE
100
AcDbEntity
  8
0
100
AcDbBlockBegin
  2
*Paper_Space8
 70
     0
 10
0.0
 20
0.0
 30
0.0
  3
*Paper_Space8
  1

  0
SPLINE
  5
3B9
330
3AE
100
AcDbEntity
  8
0
  6
Continuous
 62
     7
370
    25
100
AcDbSpline
210
0.0
220
0.0
230
1.0
 70
     8
 71
     3
 72
    19
 73
    15
 74
     0
 42
0.000000001
 43
0.00000001
 40
0.0
 40
0.0
 40
0.0
 40
0.0
 40
0.0333155001596498
 40
0.126488266569114
 40
0.2190809524496875
 40
0.3111046094048687
 40
0.4025753038174085
 40
0.4935107462539345
 40
0.5839302413815695
 40
0.6738546338278526
 40
0.7633062491859791
 40
0.852308829623311
 40
0.9408874635737803
 40
1.0
 40
1.0
 40
1.0
 40
1.0
 10
-62.38876478339831
 20
-0.5586165040821628
 30
0.0
 10
-62.23591585016698
 20
-0.8483201084635729
 30
0.0
 10
-61.65559748427959
 20
-1.948231758038963
 30
0.0
 10
-60.59819046049253
 20
-3.807515572624898
 30
0.0
 10
-59.19279183792519
 20
-6.105015972114953
 30
0.0
 10
-57.72381024843754
 20
-8.318996699714818
 30
0.0
 10
-56.19500075068558
 20
-10.45037620460121
 30
0.0
 10
-54.60715956238386
 20
-12.49763012585272
 30
0.0
 10
-52.96190113361934
 20
-14.46002040492352
 30
0.0
 10
-51.26052977141959
 20
-16.33654336595165
 30
0.0
 10
-49.50480363931241
 20
-18.12688002504131
 30
0.0
 10
-47.69499715046584
 20
-19.82863629487267
 30
0.0
 10
-46.04007061355476
 20
-21.2702906355322
 30
0.0
 10
-44.97425074722841
 20
-22.12350503380529
 30
0.0
 10
-44.5476625123914
 20
-22.4649991601546
 30
0.0
  0
SPLINE
  5
3BA
330
3AE
100
AcDbEntity
  8
0
  6
Continuous
 62
     7
370
    25
100
AcDbSpline
210
0.0
220
0.0
230
1.0
 70
     8
 71
     3
 72
     9
 73
     5
 74
     0
 42
0.000000001
 43
0.00000001
 40
0.0
 40
0.0
 40
0.0
 40
0.0
 40
0.3984758516056525
 40
1.0
 40
1.0
 40
1.0
 40
1.0
 10
-43.69345908940672
 20
-22.8887074256082
 30
0.0
 10
-43.59485501178911
 20
-22.91833985835635
 30
0.0
 10
-43.34740192970075
 20
-22.99270429632353
 30
0.0
 10
-43.07810983499319
 20
-22.99666241923122
 30
0.0
 10
-42.91612413705488
 20
-22.99904332574252
 30
0.0
  0
SPLINE
  5
3BB
330
3AE
100
AcDbEntity
  8
0
  6
Continuous
 62
     7
370
    25
100
AcDbSpline
210
0.0
220
0.0
230
1.0
 70
     8
 71
     3
 72
    10
 73
     6
 74
     0
 42
0.000000001
 43
0.00000001
 40
0.0
 40
0.0
 40
0.0
 40
0.0
 40
0.2864451834873307
 40
0.8046785890268332
 40
1.0
 40
1.0
 40
1.0
 40
1.0
 10
-44.54766251239139
 20
-22.46499916015458
 30
0.0
 10
-44.47379803859027
 20
-22.51874829805766
 30
0.0
 10
-44.26629878922648
 20
-22.66973977196794
 30
0.0
 10
-43.98122267217267
 20
-22.82103055485007
 30
0.0
 10
-43.75530072120738
 20
-22.87416337495866
 30
0.0
 10
-43.69345908940672
 20
-22.8887074256082
 30
0.0
  0
LWPOLYLINE
  5
3C1
330
3AE
100
AcDbEntity
  8
0
  6
Continuous
 62
     7
370
    25
100
AcDbPolyline
 90
       13
 70
   128
 43
0.0
 10
54.2272020331
 20
-21.076939139
 10
54.3527691622
 20
-21.1085707662
 10
54.3928234075
 20
-21.1428480353
 10
54.3461274904
 20
-21.1787121188
 10
54.2141238512
 20
-21.2150551721
 10
54.000890093
 20
-21.2507545557
 10
53.7130130231
 20
-21.2847075127
 10
53.3593851871
 20
-21.3158652336
 10
52.9509301767
 20
-21.3432652539
 10
52.5002651992
 20
-21.3660611848
 10
52.0213113314
 20
-21.3835488583
 10
51.5288634959
 20
-21.3951880788
 10
51.5138607684
 20
-21.3954457087
  0
SPLINE
  5
3C7
330
3AE
100
AcDbEntity
  8
0
  6
Continuous
 62
     7
370
    25
100
AcDbSpline
210
0.0
220
0.0
230
1.0
 70
     8
 71
     3
 72
    17
 73
    13
 74
     0
 42
0.000000001
 43
0.00000001
 40
0.0
 40
0.0
 40
0.0
 40
0.0
 40
0.1167463795441818
 40
0.4671037394079761
 40
0.635443540536026
 40
0.7439995571746698
 40
0.7938207875661961
 40
0.8353972166289149
 40
0.8663344884850617
 40
0.8973236565335501
 40
0.9382728570721174
 40
1.0
 40
1.0
 40
1.0
 40
1.0
 10
-62.38894057474414
 20
-0.5587301569184698
 30
0.0
 10
-62.39785377137064
 20
-0.5437549586379021
 30
0.0
 10
-62.43351558367344
 20
-0.4838390011363408
 30
0.0
 10
-62.47191232562889
 20
-0.3923294671424431
 30
0.0
 10
-62.50261972899543
 20
-0.2979160743792775
 30
0.0
 10
-62.51200924992034
 20
-0.2451983169640699
 30
0.0
 10
-62.51186431148923
 20
-0.2120510440109802
 30
0.0
 10
-62.50777679420938
 20
-0.192212092975718
 30
0.0
 10
-62.50018737074847
 20
-0.1779398728885742
 30
0.0
 10
-62.48939271313338
 20
-0.1682207628857756
 30
0.0
 10
-62.47302028962821
 20
-0.1625931211100048
 30
0.0
 10
-62.46031894459564
 20
-0.164066288171557
 30
0.0
 10
-62.45268312787551
 20
-0.164951929310455
 30
0.0
  0
SPLINE
  5
3DB
330
3AE
100
AcDbEntity
  8
0
  6
Continuous
 62
     7
370
    25
100
AcDbSpline
210
0.0
220
0.0
230
1.0
 70
     8
 71
     3
 72
     8
 73
     4
 74
     0
 42
0.000000001
 43
0.00000001
 40
0.0
 40
0.0
 40
0.0
 40
0.0
 40
0.0000453377850437
 40
0.0000453377850437
 40
0.0000453377850437
 40
0.0000453377850437
 10
-62.71264533504604
 20
-0.2346464481778818
 30
0.0
 10
-62.7207634790741
 20
-0.2242355501315251
 30
0.0
 10
-62.72774151696249
 20
-0.2136049183388833
 30
0.0
 10
-62.73338806921963
 20
-0.2030958181951405
 30
0.0
  0
LWPOLYLINE
  5
3DC
330
3AE
100
AcDbEntity
  8
0
  6
Continuous
 62
     8
370
    25
100
AcDbPolyline
 90
        9
 70
   128
 43
0.0
 10
-42.9161241371
 20
-22.9990433257
 10
-42.927699954
 20
-22.9983692732
 10
-42.9597243646
 20
-22.9871502058
 10
-42.9889634732
 20
-22.9629013484
 10
-43.0133916344
 20
-22.9273026287
 10
-43.0313164986
 20
-22.8828202772
 10
-43.0414962557
 20
-22.8325359706
 10
-43.043225666
 20
-22.7799333367
 10
-43.0363849183
 20
-22.7286566142
  0
LWPOLYLINE
  5
3DD
330
3AE
100
AcDbEntity
  8
0
  6
Continuous
 62
     8
370
    25
100
AcDbPolyline
 90
        9
 70
   128
 43
0.0
 10
61.6507126499
 20
-19.7842797326
 10
61.6546547293
 20
-19.7831326183
 10
61.6835140525
 20
-19.7689873851
 10
61.7082208001
 20
-19.7461421437
 10
61.7275661093
 20
-19.7157146766
 10
61.7406034437
 20
-19.6791937528
 10
61.7466949067
 20
-19.6383662848
 10
61.7455424525
 20
-19.5952298977
 10
61.7372024688
 20
-19.5518951884
  0
LWPOLYLINE
  5
3E0
330
3AE
100
AcDbEntity
  8
0
  6
Continuous
 62
     8
370
    25
100
AcDbPolyline
 90
        3
 70
   128
 43
0.0
 10
58.9107408572
 20
-9.5567778776
 10
58.8971001551
 20
-9.5554344958
 10
58.87087089
 20
-9.5587382696
  0
LWPOLYLINE
  5
3E1
330
3AE
100
AcDbEntity
  8
0
  6
Continuous
 62
     8
370
    25
100
AcDbPolyline
 90
        3
 70
   128
 43
0.0
 10
-54.4091663368
 20
10.753016279
 10
-54.4228070389
 20
10.7543596608
 10
-54.4490363041
 20
10.751055887
  0
LWPOLYLINE
  5
3E3
330
3AE
100
AcDbEntity
  8
0
  6
Continuous
 62
     8
370
    25
100
AcDbPolyline
 90
        6
 70
   128
 43
0.0
 10
-59.0227216622
 20
9.3601192111
 10
-59.0453295293
 20
9.3768181201
 10
-59.0624644813
 20
9.3928282951
 10
-59.0735211087
 20
9.4075840672
 10
-59.0781087606
 20
9.4205640878
 10
-59.0771007006
 20
9.4291143573
  0
LINE
  5
3E6
330
3AE
100
AcDbEntity
  8
0
  6
Continuous
 62
     7
370
    25
100
AcDbLine
 10
-42.9161241371
 20
-22.9990433257
 30
0.0
 11
51.5138607684
 21
-21.3954457087
 31
0.0
  0
LINE
  5
3E7
330
3AE
100
AcDbEntity
  8
0
  6
Continuous
 62
     7
370
    25
100
AcDbLine
 10
55.7517173691
 20
-21.3749036832
 30
0.0
 11
61.6507126499
 21
-19.7842797326
 31
0.0
  0
LINE
  5
3E8
330
3AE
100
AcDbEntity
  8
0
  6
Continuous
 62
     7
370
    25
100
AcDbLine
 10
61.79139502
 20
-19.5378199684
 30
0.0
 11
59.068209311
 21
-9.7002844579
 31
0.0
  0
LINE
  5
3E9
330
3AE
100
AcDbEntity
  8
0
  6
Continuous
 62
     7
370
    25
100
AcDbLine
 10
58.9107408572
 20
-9.5567778776
 30
0.0
 11
-54.4091663368
 21
10.753016279
 31
0.0
  0
LINE
  5
3EA
330
3AE
100
AcDbEntity
  8
0
  6
Continuous
 62
     7
370
    25
100
AcDbLine
 10
-59.0771007006
 20
9.4291143573
 30
0.0
 11
-62.7298581459
 21
-0.0690093995
 31
0.0
  0
LINE
  5
3EB
330
3AE
100
AcDbEntity
  8
0
  6
Continuous
 62
     7
370
    25
100
AcDbLine
 10
-54.4965181519
 20
10.7492562241
 30
0.0
 11
-58.9424981117
 21
9.5504279709
 31
0.0
  0
LINE
  5
3EC
330
3AE
100
AcDbEntity
  8
0
  6
Continuous
 62
     7
370
    25
100
AcDbLine
 10
-43.0363849183
 20
-22.7286566142
 30
0.0
 11
54.2272020331
 21
-21.076939139
 31
0.0
  0
LINE
  5
3ED
330
3AE
100
AcDbEntity
  8
0
  6
Continuous
 62
     7
370
    25
100
AcDbLine
 10
-62.4526831279
 20
-0.1649519293
 30
0.0
 11
54.2272020331
 21
-21.076939139
 31
0.0
  0
LINE
  5
3EE
330
3AE
100
AcDbEntity
  8
0
  6
Continuous
 62
     7
370
    25
100
AcDbLine
 10
55.7625763305
 20
-21.371407185
 30
0.0
 11
54.2971855318
 21
-10.9496749456
 31
0.0
  0
LINE
  5
3EF
330
3AE
100
AcDbEntity
  8
0
  6
Continuous
 62
     7
370
    25
100
AcDbLine
 10
-62.2473778644
 20
-0.827054196
 30
0.0
 11
-62.712645335
 21
-0.2346464482
 31
0.0
  0
LINE
  5
3F0
330
3AE
100
AcDbEntity
  8
0
  6
Continuous
 62
     7
370
    25
100
AcDbLine
 10
-59.0227216622
 20
9.3601192111
 30
0.0
 11
-62.712645335
 21
-0.2346464482
 31
0.0
  0
LINE
  5
3F1
330
3AE
100
AcDbEntity
  8
0
  6
Continuous
 62
     7
370
    25
100
AcDbLine
 10
54.2971855318
 20
-10.9496749456
 30
0.0
 11
-59.0227216622
 21
9.3601192111
 31
0.0
  0
LINE
  5
3F2
330
3AE
100
AcDbEntity
  8
0
  6
Continuous
 62
     7
370
    25
100
AcDbLine
 10
55.722877201
 20
-21.3788285132
 30
0.0
 11
51.2737406304
 21
-21.3995233974
 31
0.0
  0
LINE
  5
3F3
330
3AE
100
AcDbEntity
  8
0
  6
Continuous
 62
     7
370
    25
100
AcDbLine
 10
54.5680368001
 20
-10.913187931
 30
0.0
 11
56.0002312276
 21
-21.0988304589
 31
0.0
  0
LINE
  5
3F4
330
3AE
100
AcDbEntity
  8
0
  6
Continuous
 62
     7
370
    25
100
AcDbLine
 10
59.0140167598
 20
-9.7143596778
 30
0.0
 11
54.5680368001
 21
-10.913187931
 31
0.0
  0
LINE
  5
3F5
330
3AE
100
AcDbEntity
  8
0
  6
Continuous
 62
     7
370
    25
100
AcDbLine
 10
61.7372024688
 20
-19.5518951884
 30
0.0
 11
59.0140167598
 21
-9.7143596778
 31
0.0
  0
LINE
  5
3F6
330
3AE
100
AcDbEntity
  8
0
  6
Continuous
 62
     7
370
    25
100
AcDbLine
 10
56.0002312276
 20
-21.0988304589
 30
0.0
 11
61.7372024688
 21
-19.5518951884
 31
0.0
  0
LINE
  5
3F7
330
3AE
100
AcDbEntity
  8
0
  6
Continuous
 62
     7
370
    25
100
AcDbLine
 10
-58.8950162638
 20
9.5522276338
 30
0.0
 11
54.4248909303
 21
-10.7575665228
 31
0.0
  0
LINE
  5
3F8
330
3AE
100
AcDbEntity
  8
0
  6
Continuous
 62
     7
370
    25
100
AcDbLine
 10
54.4248909303
 20
-10.7575665228
 30
0.0
 11
58.87087089
 21
-9.5587382696
 31
0.0
  0
LINE
  5
3F9
330
3AE
100
AcDbEntity
  8
0
  6
Continuous
 62
     7
370
    25
100
AcDbLine
 10
-54.4490363041
 20
10.751055887
 30
0.0
 11
-58.8950162638
 21
9.5522276338
 31
0.0
  0
LINE
  5
3FA
330
3AE
100
AcDbEntity
  8
0
  6
Continuous
 62
     7
370
    25
100
AcDbLine
 10
58.87087089
 20
-9.5587382696
 30
0.0
 11
-54.4490363041
 21
10.751055887
 31
0.0
  0
ARC
  5
3FB
330
3AE
100
AcDbEntity
  8
0
  6
Continuous
 62
     7
370
    25
100
AcDbCircle
 10
61.5986437005
 20
-19.5911765879
 30
0.0
 40
0.2000000000000239
100
AcDbArc
 50
285.0905191974
 51
15.4729316908
  0
ARC
  5
3FC
330
3AE
100
AcDbEntity
  8
0
  6
Continuous
 62
     7
370
    25
100
AcDbCircle
 10
58.8754579916
 20
-9.7536410773
 30
0.0
 40
0.1999999999999847
100
AcDbArc
 50
15.4729316907
 51
79.8390262129
  0
ARC
  5
3FD
330
3AE
100
AcDbEntity
  8
0
  6
Continuous
 62
     7
370
    25
100
AcDbCircle
 10
-58.8904291623
 20
9.3573248262
 30
0.0
 40
0.1999999999999824
100
AcDbArc
 50
105.0905191974
 51
158.9644179738
  0
ARC
  5
3FE
330
3AE
100
AcDbEntity
  8
0
  6
Continuous
 62
     7
370
    25
100
AcDbCircle
 10
-54.4444492025
 20
10.5561530793
 30
0.0
 40
0.1999999999999712
100
AcDbArc
 50
79.8390262129
 51
105.0905191974
  0
ARC
  5
3FF
330
3AE
100
AcDbEntity
  8
0
  6
Continuous
 62
     7
370
    25
100
AcDbCircle
 10
-43.1093658578
 20
-20.4027978563
 30
0.0
 40
2.327003476487246
100
AcDbArc
 50
232.0372217402
 51
271.7972408121
  0
ARC
  5
400
330
3AE
100
AcDbEntity
  8
0
  6
Continuous
 62
     7
370
    25
100
AcDbCircle
 10
-2.0852944108
 20
30.5193104134
 30
0.0
 40
67.71813328817345
100
AcDbArc
 50
206.9438676719
 51
231.1749323003
  0
ARC
  5
401
330
3AE
100
AcDbEntity
  8
0
  6
Continuous
 62
     7
370
    25
100
AcDbCircle
 10
55.7220588648
 20
-21.2645584373
 30
0.0
 40
0.1142730060993345
100
AcDbArc
 50
270.4103122456
 51
290.7669245773
  0
ARC
  5
402
330
3AE
100
AcDbEntity
  8
0
  6
Continuous
 62
     7
370
    25
100
AcDbCircle
 10
54.5923715243
 20
-12.1173683022
 30
0.0
 40
1.204426230677694
100
AcDbArc
 50
91.1577063297
 51
104.186817258
  0
ARC
  5
403
330
3AE
100
AcDbEntity
  8
0
  6
Continuous
 62
     7
370
    25
100
AcDbCircle
 10
55.4842469769
 20
-20.8888447277
 30
0.0
 40
0.5570760758846462
100
AcDbArc
 50
299.9752193261
 51
337.8555686622
  0
ARC
  5
404
330
3AE
100
AcDbEntity
  8
0
  6
Continuous
 62
     7
370
    25
100
AcDbCircle
 10
54.5134260449
 20
-10.954921584
 30
0.0
 40
0.2163041531992592
100
AcDbArc
 50
114.1613992272
 51
178.6101065664
  0
ARC
  5
405
330
3AE
100
AcDbEntity
  8
0
  6
Continuous
 62
     7
370
    25
100
AcDbCircle
 10
54.3672028929
 20
-10.9542758703
 30
0.0
 40
0.2049938463611506
100
AcDbArc
 50
11.5623971435
 51
73.6554146024
  0
ARC
  5
406
330
3AE
100
AcDbEntity
  8
0
  6
Continuous
 62
     7
370
    25
100
AcDbCircle
 10
-58.8064811492
 20
9.3548725727
 30
0.0
 40
0.2163041531992941
100
AcDbArc
 50
114.1613992272
 51
178.6101065664
  0
ARC
  5
407
330
3AE
100
AcDbEntity
  8
0
  6
Continuous
 62
     7
370
    25
100
AcDbCircle
 10
58.8131828526
 20
-9.7554476171
 30
0.0
 40
0.2049938463611601
100
AcDbArc
 50
11.5623971435
 51
73.6554146024
  0
ARC
  5
408
330
3AE
100
AcDbEntity
  8
0
  6
Continuous
 62
     7
370
    25
100
AcDbCircle
 10
-62.579166477
 20
-0.1400661415
 30
0.0
 40
0.166604440693873
100
AcDbArc
 50
154.7543742358
 51
202.229615508
  0
ARC
  5
409
330
3AE
100
AcDbEntity
  8
0
  6
Continuous
 62
     8
370
    25
100
AcDbCircle
 10
62.071816446
 20
-20.7288652789
 30
0.0
 40
1.223611501942985
100
AcDbArc
 50
103.2485179337
 51
105.8705131872
  0
ARC
  5
40A
330
3AE
100
AcDbEntity
  8
0
  6
Continuous
 62
     8
370
    25
100
AcDbCircle
 10
59.348630737
 20
-10.8913297683
 30
0.0
 40
1.223611501934537
100
AcDbArc
 50
103.2485179337
 51
105.8705131872
  0
ARC
  5
40B
330
3AE
100
AcDbEntity
  8
0
  6
Continuous
 62
     8
370
    25
100
AcDbCircle
 10
-44.4185534925
 20
-22.3549944803
 30
0.0
 40
0.1696178663250265
100
AcDbArc
 50
136.1238091833
 51
220.4317153286
  0
ARC
  5
40C
330
3AE
100
AcDbEntity
  8
0
  6
Continuous
 62
     8
370
    25
100
AcDbCircle
 10
-58.914792054
 20
9.4467127268
 30
0.0
 40
0.1073521191230863
100
AcDbArc
 50
79.3846750222
 51
104.9565106101
  0
ARC
  5
40D
330
3AE
100
AcDbEntity
  8
0
  6
Continuous
 62
     8
370
    25
100
AcDbCircle
 10
-54.4688120943
 20
10.64554098
 30
0.0
 40
0.1073521191232696
100
AcDbArc
 50
79.3846750223
 51
104.9565106101
  0
VIEWPORT
  5
49E
330
3AE
100
AcDbEntity
  8
0
100
AcDbViewport
 10
0.0
 20
0.0
 30
0.0
 40
205.6
 41
156.0
 68
     1
 69
     1
 12
-8.0703420252
 22
-5.1585394371
 13
0.0
 23
0.0
 14
10.0
 24
10.0
 15
10.0
 25
10.0
 16
0.0
 26
0.0
 36
1.0
 17
0.0
 27
0.0
 37
0.0
 42
50.0
 43
0.0
 44
0.0
 45
63.7122628619
 50
0.0
 51
0.0
 72
   100
 90
   557152
  1

281
     0
 71
     1
 74
     0
110
0.0
120
0.0
130
0.0
111
1.0
121
0.0
131
0.0
112
0.0
122
1.0
132
0.0
 79
     0
146
0.0
  0
ENDBLK
  5
3B1
330
3AE
100
AcDbEntity
  8
0
100
AcDbBlockEnd
  0
BLOCK
  5
410
330
40E
100
AcDbEntity
  8
0
100
AcDbBlockBegin
  2
*Paper_Space9
 70
     0
 10
0.0
 20
0.0
 30
0.0
  3
*Paper_Space9
  1

  0
LWPOLYLINE
  5
425
330
40E
100
AcDbEntity
  8
0
  6
Continuous
 62
     7
370
    25
100
AcDbPolyline
 90
        9
 70
   128
 43
0.0
 10
51.9257164072
 20
-23.9539392188
 10
51.9268122768
 20
-23.9531245635
 10
51.927908135
 20
-23.9523098811
 10
51.9290039815
 20
-23.9514951715
 10
51.9300998165
 20
-23.9506804347
 10
51.93119564
 20
-23.9498656708
 10
51.9322914519
 20
-23.9490508798
 10
51.9333872522
 20
-23.9482360616
 10
51.934483041
 20
-23.9474212162
  0
LWPOLYLINE
  5
42A
330
40E
100
AcDbEntity
  8
0
  6
Continuous
 62
     7
370
    25
100
AcDbPolyline
 90
       25
 70
   128
 43
0.0
 10
31.4582349584
 20
-13.9557378365
 10
31.4262639569
 20
-13.5036193203
 10
31.3147187165
 20
-13.0616941725
 10
31.131200861
 20
-12.6600788614
 10
30.888216829
 20
-12.326142807
 10
30.6023255807
 20
-12.0826431994
 10
30.2930101322
 20
-11.9461741346
 10
29.9813498202
 20
-11.9260357536
 10
29.6885837799
 20
-12.023600454
 10
29.4346635331
 20
-12.2322193626
 10
29.2368933251
 20
-12.5376754456
 10
29.1087508686
 20
-12.9191523757
 10
29.0589688602
 20
-13.3506531305
 10
29.0909398617
 20
-13.8027716467
 10
29.2024851021
 20
-14.2446967945
 10
29.3860029576
 20
-14.6463121055
 10
29.6289869896
 20
-14.98024816
 10
29.9148782379
 20
-15.2237477675
 10
30.2241936864
 20
-15.3602168324
 10
30.5358539984
 20
-15.3803552133
 10
30.8286200387
 20
-15.282790513
 10
31.0825402855
 20
-15.0741716043
 10
31.2803104936
 20
-14.7687155214
 10
31.4084529501
 20
-14.3872385913
 10
31.4582349584
 20
-13.9557378365
  0
LWPOLYLINE
  5
42B
330
40E
100
AcDbEntity
  8
0
  6
Continuous
 62
     7
370
    25
100
AcDbPolyline
 90
       25
 70
   128
 43
0.0
 10
-34.3502065904
 20
2.6408712425
 10
-34.3821775919
 20
3.0929897587
 10
-34.4937228323
 20
3.5349149065
 10
-34.6772406878
 20
3.9365302175
 10
-34.9202247198
 20
4.270466272
 10
-35.2061159681
 20
4.5139658795
 10
-35.5154314166
 20
4.6504349444
 10
-35.8270917286
 20
4.6705733254
 10
-36.1198577689
 20
4.573008625
 10
-36.3737780157
 20
4.3643897164
 10
-36.5715482237
 20
4.0589336334
 10
-36.6996906803
 20
3.6774567033
 10
-36.7494726886
 20
3.2459559485
 10
-36.7175016871
 20
2.7938374323
 10
-36.6059564467
 20
2.3519122845
 10
-36.4224385912
 20
1.9502969735
 10
-36.1794545592
 20
1.616360919
 10
-35.8935633109
 20
1.3728613115
 10
-35.5842478624
 20
1.2363922466
 10
-35.2725875504
 20
1.2162538656
 10
-34.9798215101
 20
1.313818566
 10
-34.7259012633
 20
1.5224374746
 10
-34.5281310553
 20
1.8278935576
 10
-34.3999885987
 20
2.2093704877
 10
-34.3502065904
 20
2.6408712425
  0
LWPOLYLINE
  5
42E
330
40E
100
AcDbEntity
  8
0
  6
Continuous
 62
     7
370
    25
100
AcDbPolyline
 90
        9
 70
   128
 43
0.0
 10
52.1562444144
 20
-24.0991862167
 10
52.155146826
 20
-24.1000024003
 10
52.1540492259
 20
-24.1008185567
 10
52.1529516144
 20
-24.1016346859
 10
52.1518539912
 20
-24.1024507879
 10
52.1507563565
 20
-24.1032668627
 10
52.1496587102
 20
-24.1040829103
 10
52.1485610523
 20
-24.1048989308
 10
52.1474633829
 20
-24.105714924
  0
LWPOLYLINE
  5
432
330
40E
100
AcDbEntity
  8
0
  6
Continuous
 62
     7
370
    25
100
AcDbPolyline
 90
        8
 70
   128
 43
0.0
 10
58.5701476641
 20
-22.8964118424
 10
58.5779719238
 20
-22.8800529684
 10
58.5772403199
 20
-22.8592573531
 10
58.5679776187
 20
-22.8347289674
 10
58.55049738
 20
-22.8072981435
 10
58.5253913431
 20
-22.7778934667
 10
58.4935093947
 20
-22.747510341
 10
58.4559307992
 20
-22.7171772925
  0
SPLINE
  5
43B
330
40E
100
AcDbEntity
  8
0
  6
Continuous
 62
     7
370
    25
100
AcDbSpline
210
0.0
220
0.0
230
1.0
 70
     8
 71
     3
 72
     8
 73
     4
 74
     0
 42
0.000000001
 43
0.00000001
 40
0.0
 40
0.0
 40
0.0
 40
0.0
 40
0.0000453377850437
 40
0.0000453377850437
 40
0.0000453377850437
 40
0.0000453377850437
 10
58.55209900489909
 20
-22.91382008730156
 30
0.0
 10
58.55939626124045
 20
-22.90769657065128
 30
0.0
 10
58.56546598681366
 20
-22.90183425479517
 30
0.0
 10
58.57014766413064
 20
-22.89641184238589
 30
0.0
  0
LWPOLYLINE
  5
44B
330
40E
100
AcDbEntity
  8
0
  6
Continuous
 62
     8
370
    25
100
AcDbPolyline
 90
        3
 70
   128
 43
0.0
 10
54.8167853308
 20
-12.7467425235
 10
54.7966186576
 20
-12.7437869332
 10
54.771809909
 20
-12.7455822633
  0
LWPOLYLINE
  5
44C
330
40E
100
AcDbEntity
  8
0
  6
Continuous
 62
     8
370
    25
100
AcDbPolyline
 90
        3
 70
   128
 43
0.0
 10
-49.8708773908
 20
13.6550407841
 10
-49.8910440639
 20
13.6579963744
 10
-49.9158528125
 20
13.6562010443
  0
LWPOLYLINE
  5
44F
330
40E
100
AcDbEntity
  8
0
  6
Continuous
 62
     8
370
    25
100
AcDbPolyline
 90
        6
 70
   128
 43
0.0
 10
-54.8950733858
 20
12.5281164097
 10
-54.9172684852
 20
12.5475807694
 10
-54.9330168291
 20
12.5673461102
 10
-54.9417132173
 20
12.5866528611
 10
-54.9430234525
 20
12.6047590746
 10
-54.9419184411
 20
12.6100029453
  0
LWPOLYLINE
  5
450
330
40E
100
AcDbEntity
  8
0
  6
Continuous
 62
     8
370
    25
100
AcDbPolyline
 90
        3
 70
   128
 43
0.0
 10
-54.7863755006
 20
12.7519863222
 10
-54.766693276
 20
12.7534970234
 10
-54.7455804657
 20
12.750500969
  0
LWPOLYLINE
  5
451
330
40E
100
AcDbEntity
  8
0
  6
Continuous
 62
     8
370
    25
100
AcDbPolyline
 90
        6
 70
   128
 43
0.0
 10
-57.396110432
 20
3.7130879889
 10
-57.4183055315
 20
3.7325523486
 10
-57.4340538753
 20
3.7523176894
 10
-57.4427502635
 20
3.7716244403
 10
-57.4440604987
 20
3.7897306538
 10
-57.4429554874
 20
3.7949745245
  0
LWPOLYLINE
  5
452
330
40E
100
AcDbEntity
  8
0
  6
Continuous
 62
     8
370
    25
100
AcDbPolyline
 90
        3
 70
   128
 43
0.0
 10
-49.9566478475
 20
13.6576863975
 10
-49.9369656229
 20
13.6591970987
 10
-49.9158528125
 20
13.6562010443
  0
LINE
  5
455
330
40E
100
AcDbEntity
  8
0
  6
Continuous
 62
     7
370
    25
100
AcDbLine
 10
58.5741230221
 20
-22.848654676
 30
0.0
 11
54.9558934834
 21
-12.8724794702
 31
0.0
  0
LINE
  5
456
330
40E
100
AcDbEntity
  8
0
  6
Continuous
 62
     7
370
    25
100
AcDbLine
 10
54.8167853308
 20
-12.7467425235
 30
0.0
 11
-49.8708773908
 21
13.6550407841
 31
0.0
  0
LINE
  5
457
330
40E
100
AcDbEntity
  8
0
  6
Continuous
 62
     7
370
    25
100
AcDbLine
 10
-56.8245258825
 20
3.3316290122
 30
0.0
 11
36.858178023
 21
-32.6531061061
 31
0.0
  0
LINE
  5
458
330
40E
100
AcDbEntity
  8
0
  6
Continuous
 62
     7
370
    25
100
AcDbLine
 10
38.2909417271
 20
-32.8695642176
 30
0.0
 11
42.74585568
 21
-32.0341515003
 31
0.0
  0
LINE
  5
459
330
40E
100
AcDbEntity
  8
0
  6
Continuous
 62
     7
370
    25
100
AcDbLine
 10
-54.9419184411
 20
12.6100029453
 30
0.0
 11
-57.4429554874
 21
3.7949745245
 31
0.0
  0
LINE
  5
45A
330
40E
100
AcDbEntity
  8
0
  6
Continuous
 62
     7
370
    25
100
AcDbLine
 10
-49.9566478475
 20
13.6576863975
 30
0.0
 11
-54.7863755006
 21
12.7519863222
 31
0.0
  0
LINE
  5
45B
330
40E
100
AcDbEntity
  8
0
  6
Continuous
 62
     7
370
    25
100
AcDbLine
 10
-57.332034255
 20
3.557736381
 30
0.0
 11
-56.8342961729
 21
3.3356815351
 31
0.0
  0
LINE
  5
45C
330
40E
100
AcDbEntity
  8
0
  6
Continuous
 62
     7
370
    25
100
AcDbLine
 10
51.934483041
 20
-23.9474212162
 30
0.0
 11
49.7925893357
 21
-13.8736668979
 31
0.0
  0
LINE
  5
45D
330
40E
100
AcDbEntity
  8
0
  6
Continuous
 62
     7
370
    25
100
AcDbLine
 10
50.068852796
 20
-13.8145581385
 30
0.0
 11
52.2107465013
 21
-23.8883124568
 31
0.0
  0
LINE
  5
45E
330
40E
100
AcDbEntity
  8
0
  6
Continuous
 62
     7
370
    25
100
AcDbLine
 10
58.4559307992
 20
-22.7171772925
 30
0.0
 11
54.8985804491
 21
-12.9088580632
 31
0.0
  0
LINE
  5
45F
330
40E
100
AcDbEntity
  8
0
  6
Continuous
 62
     7
370
    25
100
AcDbLine
 10
52.2107465013
 20
-23.8883124568
 30
0.0
 11
58.4559307992
 21
-22.7171772925
 31
0.0
  0
LINE
  5
460
330
40E
100
AcDbEntity
  8
0
  6
Continuous
 62
     7
370
    25
100
AcDbLine
 10
54.8985804491
 20
-12.9088580632
 30
0.0
 11
50.068852796
 21
-13.8145581385
 31
0.0
  0
LINE
  5
461
330
40E
100
AcDbEntity
  8
0
  6
Continuous
 62
     7
370
    25
100
AcDbLine
 10
-56.89837235
 20
3.491033143
 30
0.0
 11
51.9257164072
 21
-23.9539392188
 31
0.0
  0
LINE
  5
462
330
40E
100
AcDbEntity
  8
0
  6
Continuous
 62
     7
370
    25
100
AcDbLine
 10
-57.396110432
 20
3.7130879889
 30
0.0
 11
-56.89837235
 21
3.491033143
 31
0.0
  0
LINE
  5
463
330
40E
100
AcDbEntity
  8
0
  6
Continuous
 62
     7
370
    25
100
AcDbLine
 10
-54.8950733858
 20
12.5281164097
 30
0.0
 11
-57.396110432
 21
3.7130879889
 31
0.0
  0
LINE
  5
464
330
40E
100
AcDbEntity
  8
0
  6
Continuous
 62
     7
370
    25
100
AcDbLine
 10
49.7925893357
 20
-13.8736668979
 30
0.0
 11
-54.8950733858
 21
12.5281164097
 31
0.0
  0
LINE
  5
465
330
40E
100
AcDbEntity
  8
0
  6
Continuous
 62
     7
370
    25
100
AcDbLine
 10
58.5701476641
 20
-22.8964118424
 30
0.0
 11
52.1562444144
 21
-24.0991862167
 31
0.0
  0
LINE
  5
466
330
40E
100
AcDbEntity
  8
0
  6
Continuous
 62
     7
370
    25
100
AcDbLine
 10
51.9526605751
 20
-24.0658496741
 30
0.0
 11
-56.871428182
 21
3.3791226877
 31
0.0
  0
LINE
  5
467
330
40E
100
AcDbEntity
  8
0
  6
Continuous
 62
     7
370
    25
100
AcDbLine
 10
-56.871428182
 20
3.3791226877
 30
0.0
 11
36.8112757235
 21
-32.6056124307
 31
0.0
  0
LINE
  5
468
330
40E
100
AcDbEntity
  8
0
  6
Continuous
 62
     7
370
    25
100
AcDbLine
 10
57.9525887004
 20
-23.4089254037
 30
0.0
 11
58.5520990049
 21
-22.9138200873
 31
0.0
  0
LINE
  5
469
330
40E
100
AcDbEntity
  8
0
  6
Continuous
 62
     7
370
    25
100
AcDbLine
 10
38.3250537868
 20
-32.8626934988
 30
0.0
 11
42.7820654653
 21
-32.0268874032
 31
0.0
  0
LINE
  5
46A
330
40E
100
AcDbEntity
  8
0
  6
Continuous
 62
     7
370
    25
100
AcDbLine
 10
-54.7455804657
 20
12.750500969
 30
0.0
 11
49.9420822559
 21
-13.6512823386
 31
0.0
  0
LINE
  5
46B
330
40E
100
AcDbEntity
  8
0
  6
Continuous
 62
     7
370
    25
100
AcDbLine
 10
49.9420822559
 20
-13.6512823386
 30
0.0
 11
54.771809909
 21
-12.7455822633
 31
0.0
  0
LINE
  5
46C
330
40E
100
AcDbEntity
  8
0
  6
Continuous
 62
     7
370
    25
100
AcDbLine
 10
54.771809909
 20
-12.7455822633
 30
0.0
 11
-49.9158528125
 21
13.6562010443
 31
0.0
  0
LINE
  5
46D
330
40E
100
AcDbEntity
  8
0
  6
Continuous
 62
     7
370
    25
100
AcDbLine
 10
-49.9158528125
 20
13.6562010443
 30
0.0
 11
-54.7455804657
 21
12.750500969
 31
0.0
  0
LINE
  5
46E
330
40E
100
AcDbEntity
  8
0
  6
Continuous
 62
     7
370
    25
100
AcDbLine
 10
42.74585568
 20
-32.0341515003
 30
0.0
 11
42.7820654653
 21
-32.0268874032
 31
0.0
  0
ARC
  5
46F
330
40E
100
AcDbEntity
  8
0
  6
Continuous
 62
     7
370
    25
100
AcDbCircle
 10
54.7678775407
 20
-12.9406704175
 30
0.0
 40
0.1999999999999953
100
AcDbArc
 50
19.9350524423
 51
75.845411218
  0
ARC
  5
470
330
40E
100
AcDbEntity
  8
0
  6
Continuous
 62
     7
370
    25
100
AcDbCircle
 10
-54.749512834
 20
12.5554128148
 30
0.0
 40
0.1999999999999772
100
AcDbArc
 50
100.6211008688
 51
164.1600764299
  0
ARC
  5
471
330
40E
100
AcDbEntity
  8
0
  6
Continuous
 62
     7
370
    25
100
AcDbCircle
 10
-56.7528117982
 20
3.5183295481
 30
0.0
 40
0.2000000000012814
100
AcDbArc
 50
245.9570164992
 51
248.9875733384
  0
ARC
  5
472
330
40E
100
AcDbEntity
  8
0
  6
Continuous
 62
     7
370
    25
100
AcDbCircle
 10
-57.2505498802
 20
3.7403843941
 30
0.0
 40
0.2000000000000083
100
AcDbArc
 50
164.1600764299
 51
245.9570164992
  0
ARC
  5
473
330
40E
100
AcDbEntity
  8
0
  6
Continuous
 62
     7
370
    25
100
AcDbCircle
 10
-49.9197851809
 20
13.4611128901
 30
0.0
 40
0.1999999999999481
100
AcDbArc
 50
75.845411218
 51
100.6211008688
  0
ARC
  5
474
330
40E
100
AcDbEntity
  8
0
  6
Continuous
 62
     7
370
    25
100
AcDbCircle
 10
51.2297891304
 20
-19.9157175122
 30
0.0
 40
6.210629507189374
100
AcDbArc
 50
100.773520189
 51
103.3800797852
  0
ARC
  5
475
330
40E
100
AcDbEntity
  8
0
  6
Continuous
 62
     7
370
    25
100
AcDbCircle
 10
53.3716828357
 20
-29.9894718305
 30
0.0
 40
6.210629507193282
100
AcDbArc
 50
100.773520189
 51
103.3800797852
  0
ARC
  5
476
330
40E
100
AcDbEntity
  8
0
  6
Continuous
 62
     7
370
    25
100
AcDbCircle
 10
52.0082212981
 20
-23.9484482643
 30
0.0
 40
0.2112646995052458
100
AcDbArc
 50
314.4793686704
 51
16.5377335444
  0
ARC
  5
477
330
40E
100
AcDbEntity
  8
0
  6
Continuous
 62
     7
370
    25
100
AcDbCircle
 10
52.1484391087
 20
-23.8726883705
 30
0.0
 40
0.2266322950228773
100
AcDbArc
 50
199.2538288932
 51
271.9736795598
  0
ARC
  5
478
330
40E
100
AcDbEntity
  8
0
  6
Continuous
 62
     7
370
    25
100
AcDbCircle
 10
52.1396618461
 20
-23.8792371373
 30
0.0
 40
0.2266121175571377
100
AcDbArc
 50
199.2473717898
 51
271.9729018793
  0
ARC
  5
479
330
40E
100
AcDbEntity
  8
0
  6
Continuous
 62
     7
370
    25
100
AcDbCircle
 10
52.1344525917
 20
-23.962881603
 30
0.0
 40
0.2089276452940236
100
AcDbArc
 50
177.5469142007
 51
209.5274717845
  0
ARC
  5
47A
330
40E
100
AcDbEntity
  8
0
  6
Continuous
 62
     7
370
    25
100
AcDbCircle
 10
52.086531422
 20
-23.9075732093
 30
0.0
 40
0.2072989217675273
100
AcDbArc
 50
229.7753291932
 51
287.0935568438
  0
ARC
  5
47B
330
40E
100
AcDbEntity
  8
0
  6
Continuous
 62
     7
370
    25
100
AcDbCircle
 10
38.2971630086
 20
-32.6941842418
 30
0.0
 40
0.1708018301995526
100
AcDbArc
 50
220.7528693799
 51
279.3980975741
  0
ARC
  5
47C
330
40E
100
AcDbEntity
  8
0
  6
Continuous
 62
     7
370
    25
100
AcDbCircle
 10
34.3093148201
 20
-11.4789257106
 30
0.0
 40
21.67298558791607
100
AcDbArc
 50
280.255083993
 51
324.4955927759
  0
ARC
  5
47D
330
40E
100
AcDbEntity
  8
0
  6
Continuous
 62
     7
370
    25
100
AcDbCircle
 10
34.3109411881
 20
-11.2391909074
 30
0.0
 40
21.99292987018028
100
AcDbArc
 50
280.5164792769
 51
324.1948897799
  0
ARC
  5
47E
330
40E
100
AcDbEntity
  8
0
  6
Continuous
 62
     7
370
    25
100
AcDbCircle
 10
-56.6896361654
 20
3.4820907588
 30
0.0
 40
0.2089276452941625
100
AcDbArc
 50
177.5469142008
 51
209.5274717845
  0
ARC
  5
47F
330
40E
100
AcDbEntity
  8
0
  6
Continuous
 62
     7
370
    25
100
AcDbCircle
 10
37.8390411415
 20
-30.33589802
 30
0.0
 40
2.491566828418994
100
AcDbArc
 50
245.6381709642
 51
277.5816339058
  0
ARC
  5
480
330
40E
100
AcDbEntity
  8
0
  6
Continuous
 62
     7
370
    25
100
AcDbCircle
 10
37.5636518094
 20
-5.1791143731
 30
0.0
 40
27.35022408974769
100
AcDbArc
 50
280.9994555356
 51
318.2000039168
  0
ARC
  5
481
330
40E
100
AcDbEntity
  8
0
  6
Continuous
 62
     7
370
    25
100
AcDbCircle
 10
50.0163837385
 20
-13.8626686797
 30
0.0
 40
0.2240644896383029
100
AcDbArc
 50
109.3663779796
 51
182.8134971485
  0
ARC
  5
482
330
40E
100
AcDbEntity
  8
0
  6
Continuous
 62
     7
370
    25
100
AcDbCircle
 10
49.8666008965
 20
-13.840739019
 30
0.0
 40
0.2039393766542556
100
AcDbArc
 50
7.3757460302
 51
68.277188285
  0
ARC
  5
483
330
40E
100
AcDbEntity
  8
0
  6
Continuous
 62
     7
370
    25
100
AcDbCircle
 10
-54.671278983
 20
12.5391146279
 30
0.0
 40
0.2240644896383144
100
AcDbArc
 50
109.3663779796
 51
182.8134971485
  0
ARC
  5
484
330
40E
100
AcDbEntity
  8
0
  6
Continuous
 62
     7
370
    25
100
AcDbCircle
 10
54.6963285496
 20
-12.9350389437
 30
0.0
 40
0.203939376654246
100
AcDbArc
 50
7.3757460302
 51
68.277188285
  0
ARC
  5
485
330
40E
100
AcDbEntity
  8
0
  6
Continuous
 62
     7
370
    25
100
AcDbCircle
 10
36.8860088131
 20
-32.5776172908
 30
0.0
 40
0.0804556655258603
100
AcDbArc
 50
249.7623630936
 51
285.5985955906
  0
ARC
  5
486
330
40E
100
AcDbEntity
  8
0
  6
Continuous
 62
     7
370
    25
100
AcDbCircle
 10
37.9766876472
 20
-30.2984556299
 30
0.0
 40
2.587793425956729
100
AcDbArc
 50
245.5996187191
 51
277.7365885619
  0
ARC
  5
487
330
40E
100
AcDbEntity
  8
0
  6
Continuous
 62
     8
370
    25
100
AcDbCircle
 10
54.8672316731
 20
-12.7961328011
 30
0.0
 40
0.1170031216868809
100
AcDbArc
 50
285.5411927439
 51
319.2682647004
  0
ARC
  5
488
330
40E
100
AcDbEntity
  8
0
  6
Continuous
 62
     8
370
    25
100
AcDbCircle
 10
36.8915324635
 20
-32.5732610031
 30
0.0
 40
0.0865318391141762
100
AcDbArc
 50
201.9543241819
 51
247.3277871336
  0
ARC
  5
489
330
40E
100
AcDbEntity
  8
0
  6
Continuous
 62
     8
370
    25
100
AcDbCircle
 10
-56.7911714421
 20
3.4114741153
 30
0.0
 40
0.0865318391142266
100
AcDbArc
 50
201.954324182
 51
247.3277871336
  0
ARC
  5
48A
330
40E
100
AcDbEntity
  8
0
  6
Continuous
 62
     8
370
    25
100
AcDbCircle
 10
-57.2572445903
 20
3.6794742588
 30
0.0
 40
0.142876187082187
100
AcDbArc
 50
166.3927707625
 51
238.43551426
  0
ARC
  5
48B
330
40E
100
AcDbEntity
  8
0
  6
Continuous
 62
     8
370
    25
100
AcDbCircle
 10
-56.7595065083
 20
3.4574194129
 30
0.0
 40
0.1428761870821688
100
AcDbArc
 50
166.3927707625
 51
238.43551426
  0
VIEWPORT
  5
4A0
330
40E
100
AcDbEntity
  8
0
100
AcDbViewport
 10
0.0
 20
0.0
 30
0.0
 40
205.6
 41
156.0
 68
     1
 69
     1
 12
-8.0703420252
 22
-5.1585394371
 13
0.0
 23
0.0
 14
10.0
 24
10.0
 15
10.0
 25
10.0
 16
0.0
 26
0.0
 36
1.0
 17
0.0
 27
0.0
 37
0.0
 42
50.0
 43
0.0
 44
0.0
 45
63.7122628619
 50
0.0
 51
0.0
 72
   100
 90
   557152
  1

281
     0
 71
     1
 74
     0
110
0.0
120
0.0
130
0.0
111
1.0
121
0.0
131
0.0
112
0.0
122
1.0
132
0.0
 79
     0
146
0.0
  0
ENDBLK
  5
411
330
40E
100
AcDbEntity
  8
0
100
AcDbBlockEnd
  0
ENDSEC
  0
SECTION
  2
ENTITIES
  0
SPLINE
  5
79
330
1F
100
AcDbEntity
  8
0
  6
Continuous
 62
     7
370
    25
100
AcDbSpline
210
0.0
220
0.0
230
1.0
 70
     8
 71
     3
 72
    12
 73
     8
 74
     0
 42
0.000000001
 43
0.00000001
 40
0.0
 40
0.0
 40
0.0
 40
0.0
 40
0.1571347945252279
 40
0.464801015572359
 40
0.7277565072600044
 40
0.9648545891069887
 40
1.0
 40
1.0
 40
1.0
 40
1.0
 10
-25.59346716501696
 20
-5.306263106527954
 30
0.0
 10
-25.61372778021866
 20
-5.372648978527866
 30
0.0
 10
-25.67365820206014
 20
-5.569016821935486
 30
0.0
 10
-25.71226194943054
 20
-5.844979846896702
 30
0.0
 10
-25.68321368858212
 20
-6.119165874272978
 30
0.0
 10
-25.60711672927388
 20
-6.279324429127646
 30
0.0
 10
-25.55055272487001
 20
-6.347149707819158
 30
0.0
 10
-25.54325056621594
 20
-6.35590564635255
 30
0.0
  0
LWPOLYLINE
  5
87
330
1F
100
AcDbEntity
  8
0
  6
Continuous
 62
     7
370
    25
100
AcDbPolyline
 90
       10
 70
   128
 43
0.0
 10
-1.5419440887
 20
-33.7479953259
 10
-1.5320216405
 20
-33.8122929733
 10
-1.5391844357
 20
-33.8544708421
 10
-1.5632112147
 20
-33.8732260546
 10
-1.6033597886
 20
-33.8679792608
 10
-1.6583899647
 20
-33.8388925346
 10
-1.7266018566
 20
-33.7868643672
 10
-1.8058883936
 20
-33.7135019129
 10
-1.8938004082
 20
-33.6210713436
 10
-1.9354436895
 20
-33.5740155625
  0
SPLINE
  5
98
330
1F
100
AcDbEntity
  8
0
  6
Continuous
 62
     7
370
    25
100
AcDbSpline
210
0.0
220
0.0
230
1.0
 70
     8
 71
     3
 72
     8
 73
     4
 74
     0
 42
0.000000001
 43
0.00000001
 40
0.0
 40
0.0
 40
0.0
 40
0.0
 40
0.0000453377850437
 40
0.0000453377850437
 40
0.0000453377850437
 40
0.0000453377850437
 10
-14.46169858165766
 20
18.41342612646121
 30
0.0
 10
-14.45876786927471
 20
18.42507752442181
 30
0.0
 10
-14.45430423309386
 20
18.43629337460518
 30
0.0
 10
-14.44848726254328
 20
18.44673050448074
 30
0.0
  0
LWPOLYLINE
  5
9F
330
1F
100
AcDbEntity
  8
0
  6
Continuous
 62
     8
370
    25
100
AcDbPolyline
 90
        3
 70
   128
 43
0.0
 10
-9.6762475765
 20
25.9520172871
 10
-9.6705969036
 20
25.972768339
 10
-9.6665890715
 20
25.9801483306
  0
LWPOLYLINE
  5
A0
330
1F
100
AcDbEntity
  8
0
  6
Continuous
 62
     8
370
    25
100
AcDbPolyline
 90
        4
 70
   128
 43
0.0
 10
-9.4457712097
 20
26.0564595212
 10
-9.4488979745
 20
26.0644721769
 10
-9.4531846908
 20
26.0679363517
 10
-9.453234127
 20
26.0679478894
  0
LWPOLYLINE
  5
A1
330
1F
100
AcDbEntity
  8
0
  6
Continuous
 62
     8
370
    25
100
AcDbPolyline
 90
        4
 70
   128
 43
0.0
 10
-3.0606044961
 20
24.5991383895
 10
-3.0637312609
 20
24.6071510451
 10
-3.0680179771
 20
24.6106152199
 10
-3.0680674133
 20
24.6106267577
  0
LINE
  5
A2
330
1F
100
AcDbEntity
  8
0
  6
Continuous
 62
     7
370
    25
100
AcDbLine
 10
7.3263449479
 20
-36.2337083564
 30
0.0
 11
9.554303488
 21
-26.2757101257
 31
0.0
  0
LINE
  5
A3
330
1F
100
AcDbEntity
  8
0
  6
Continuous
 62
     7
370
    25
100
AcDbLine
 10
-1.3854794572
 20
-34.4513828221
 30
0.0
 11
7.0866675957
 21
-36.3850267636
 31
0.0
  0
LINE
  5
A4
330
1F
100
AcDbEntity
  8
0
  6
Continuous
 62
     7
370
    25
100
AcDbLine
 10
-25.5432505662
 20
-6.3559056464
 30
0.0
 11
-1.9354436895
 21
-33.5740155625
 31
0.0
  0
LINE
  5
A5
330
1F
100
AcDbEntity
  8
0
  6
Continuous
 62
     7
370
    25
100
AcDbLine
 10
9.5533277299
 20
-26.1842222535
 30
0.0
 11
-2.9183712031
 21
24.4634611898
 31
0.0
  0
LINE
  5
A6
330
1F
100
AcDbEntity
  8
0
  6
Continuous
 62
     7
370
    25
100
AcDbLine
 10
-9.6665890715
 20
25.9801483306
 30
0.0
 11
-14.4443092254
 21
18.4537356934
 31
0.0
  0
LINE
  5
A7
330
1F
100
AcDbEntity
  8
0
  6
Continuous
 62
     7
370
    25
100
AcDbLine
 10
-3.0680674133
 20
24.6106267577
 30
0.0
 11
-9.453234127
 21
26.0679478894
 31
0.0
  0
LINE
  5
A8
330
1F
100
AcDbEntity
  8
0
  6
Continuous
 62
     7
370
    25
100
AcDbLine
 10
-1.3812016006
 20
-34.4515028736
 30
0.0
 11
2.7954513565
 21
-24.6956661563
 31
0.0
  0
LINE
  5
A9
330
1F
100
AcDbEntity
  8
0
  6
Continuous
 62
     7
370
    25
100
AcDbLine
 10
3.0065451742
 20
-24.7767083074
 30
0.0
 11
-1.0754915742
 21
-34.3115402413
 31
0.0
  0
LINE
  5
AA
330
1F
100
AcDbEntity
  8
0
  6
Continuous
 62
     7
370
    25
100
AcDbLine
 10
9.3917118878
 20
-26.2340294392
 30
0.0
 11
3.0065451742
 21
-24.7767083074
 31
0.0
  0
LINE
  5
AB
330
1F
100
AcDbEntity
  8
0
  6
Continuous
 62
     7
370
    25
100
AcDbLine
 10
7.1637533477
 20
-36.1920276699
 30
0.0
 11
9.3917118878
 21
-26.2340294392
 31
0.0
  0
LINE
  5
AC
330
1F
100
AcDbEntity
  8
0
  6
Continuous
 62
     7
370
    25
100
AcDbLine
 10
-1.0754915742
 20
-34.3115402413
 30
0.0
 11
7.1637533477
 21
-36.1920276699
 31
0.0
  0
LINE
  5
AD
330
1F
100
AcDbEntity
  8
0
  6
Continuous
 62
     7
370
    25
100
AcDbLine
 10
-1.3917778288
 20
-34.4467818256
 30
0.0
 11
-2.1074249531
 21
-33.3757334874
 31
0.0
  0
LINE
  5
AE
330
1F
100
AcDbEntity
  8
0
  6
Continuous
 62
     7
370
    25
100
AcDbLine
 10
-14.3834335965
 20
18.4014110243
 30
0.0
 11
-1.5419440887
 21
-33.7479953259
 31
0.0
  0
LINE
  5
AF
330
1F
100
AcDbEntity
  8
0
  6
Continuous
 62
     7
370
    25
100
AcDbLine
 10
-14.526517206
 20
18.1552165922
 30
0.0
 11
-14.4616985817
 21
18.4134261265
 31
0.0
  0
LINE
  5
B0
330
1F
100
AcDbEntity
  8
0
  6
Continuous
 62
     7
370
    25
100
AcDbLine
 10
-9.6762475765
 20
25.9520172871
 30
0.0
 11
-14.4616985817
 21
18.4134261265
 31
0.0
  0
LINE
  5
B1
330
1F
100
AcDbEntity
  8
0
  6
Continuous
 62
     7
370
    25
100
AcDbLine
 10
2.7954513565
 20
-24.6956661563
 30
0.0
 11
-9.6762475765
 21
25.9520172871
 31
0.0
  0
LINE
  5
B2
330
1F
100
AcDbEntity
  8
0
  6
Continuous
 62
     7
370
    25
100
AcDbLine
 10
-25.529573472
 20
-6.0919772726
 30
0.0
 11
-1.5419440887
 21
-33.7479953259
 31
0.0
  0
LINE
  5
B3
330
1F
100
AcDbEntity
  8
0
  6
Continuous
 62
     7
370
    25
100
AcDbLine
 10
3.0259277232
 20
-24.5912239221
 30
0.0
 11
9.4110944369
 21
-26.0485450538
 31
0.0
  0
LINE
  5
B4
330
1F
100
AcDbEntity
  8
0
  6
Continuous
 62
     7
370
    25
100
AcDbLine
 10
-9.4457712097
 20
26.0564595212
 30
0.0
 11
3.0259277232
 21
-24.5912239221
 31
0.0
  0
LINE
  5
B5
330
1F
100
AcDbEntity
  8
0
  6
Continuous
 62
     7
370
    25
100
AcDbLine
 10
-3.0606044961
 20
24.5991383895
 30
0.0
 11
-9.4457712097
 21
26.0564595212
 31
0.0
  0
LINE
  5
B6
330
1F
100
AcDbEntity
  8
0
  6
Continuous
 62
     7
370
    25
100
AcDbLine
 10
9.4110944369
 20
-26.0485450538
 30
0.0
 11
-3.0606044961
 21
24.5991383895
 31
0.0
  0
ARC
  5
B7
330
1F
100
AcDbEntity
  8
0
  6
Continuous
 62
     7
370
    25
100
AcDbCircle
 10
7.1311702876
 20
-36.19004084
 30
0.0
 40
0.1999999999999956
100
AcDbArc
 50
257.1432964145
 51
347.3885900642
  0
ARC
  5
B8
330
1F
100
AcDbEntity
  8
0
  6
Continuous
 62
     7
370
    25
100
AcDbCircle
 10
9.3591288278
 20
-26.2320426093
 30
0.0
 40
0.2000000000000154
100
AcDbArc
 50
347.3885900642
 51
13.8335326918
  0
ARC
  5
B9
330
1F
100
AcDbEntity
  8
0
  6
Continuous
 62
     7
370
    25
100
AcDbCircle
 10
-9.4977368189
 20
25.8729619658
 30
0.0
 40
0.1999999999999565
100
AcDbArc
 50
77.1432964145
 51
147.592872501
  0
ARC
  5
BA
330
1F
100
AcDbEntity
  8
0
  6
Continuous
 62
     7
370
    25
100
AcDbCircle
 10
-3.1125701052
 20
24.415640834
 30
0.0
 40
0.1999999999999994
100
AcDbArc
 50
13.8335326918
 51
77.1432964145
  0
ARC
  5
BB
330
1F
100
AcDbEntity
  8
0
  6
Continuous
 62
     7
370
    25
100
AcDbCircle
 10
2.3267111712
 20
-26.232056399
 30
0.0
 40
1.606303937428308
100
AcDbArc
 50
64.9613997189
 51
73.0334780152
  0
ARC
  5
BC
330
1F
100
AcDbEntity
  8
0
  6
Continuous
 62
     7
370
    25
100
AcDbCircle
 10
-2.1518577917
 20
-32.3643643352
 30
0.0
 40
2.224872635318814
100
AcDbArc
 50
290.2661908553
 51
298.9330822606
  0
ARC
  5
BD
330
1F
100
AcDbEntity
  8
0
  6
Continuous
 62
     7
370
    25
100
AcDbCircle
 10
-1.3830559148
 20
-34.4414498519
 30
0.0
 40
0.0102226086322158
100
AcDbArc
 50
211.4387252382
 51
280.4509347324
  0
ARC
  5
BE
330
1F
100
AcDbEntity
  8
0
  6
Continuous
 62
     7
370
    25
100
AcDbCircle
 10
-24.7297060444
 20
-5.6532883005
 30
0.0
 40
0.9122696509374356
100
AcDbArc
 50
152.7750148419
 51
208.7426586302
  0
ARC
  5
BF
330
1F
100
AcDbEntity
  8
0
  6
Continuous
 62
     7
370
    25
100
AcDbCircle
 10
95.9043888519
 20
-48.1094636393
 30
0.0
 40
128.7909167175048
100
AcDbArc
 50
148.9072351346
 51
160.5555693381
  0
ARC
  5
C0
330
1F
100
AcDbEntity
  8
0
  6
Continuous
 62
     7
370
    25
100
AcDbCircle
 10
2.9790537598
 20
-24.7943067777
 30
0.0
 40
0.2084222029497674
100
AcDbArc
 50
77.0030557179
 51
151.7530290464
  0
ARC
  5
C1
330
1F
100
AcDbEntity
  8
0
  6
Continuous
 62
     7
370
    25
100
AcDbCircle
 10
2.468713289
 20
-24.6267516247
 30
0.0
 40
0.5583458994064732
100
AcDbArc
 50
344.4206250588
 51
3.6482108068
  0
ARC
  5
C2
330
1F
100
AcDbEntity
  8
0
  6
Continuous
 62
     7
370
    25
100
AcDbCircle
 10
8.8538800027
 20
-26.0840727565
 30
0.0
 40
0.5583458994064758
100
AcDbArc
 50
344.4206250588
 51
3.6482108068
  0
ARC
  5
C3
330
1F
100
AcDbEntity
  8
0
  6
Continuous
 62
     7
370
    25
100
AcDbCircle
 10
-9.4926451732
 20
25.8533766657
 30
0.0
 40
0.2084222029497877
100
AcDbArc
 50
77.0030557179
 51
151.7530290464
  0
ARC
  5
C4
330
1F
100
AcDbEntity
  8
0
  6
Continuous
 62
     7
370
    25
100
AcDbCircle
 10
-25.4608604195
 20
-5.350563049
 30
0.0
 40
0.1398110133306183
100
AcDbArc
 50
124.9294744223
 51
161.4977165219
  0
ARC
  5
C5
330
1F
100
AcDbEntity
  8
0
  6
Continuous
 62
     8
370
    25
100
AcDbCircle
 10
6.917086872
 20
-37.4922114131
 30
0.0
 40
1.323375274163062
100
AcDbArc
 50
71.9857676638
 51
79.2577040408
  0
ARC
  5
C6
330
1F
100
AcDbEntity
  8
0
  6
Continuous
 62
     8
370
    25
100
AcDbCircle
 10
9.1450454122
 20
-27.5342131824
 30
0.0
 40
1.32337527415995
100
AcDbArc
 50
71.9857676638
 51
79.2577040408
  0
ARC
  5
C7
330
1F
100
AcDbEntity
  8
0
  6
Continuous
 62
     8
370
    25
100
AcDbCircle
 10
6.8493482618
 20
-36.1783451144
 30
0.0
 40
0.3147026697920423
100
AcDbArc
 50
318.9473602536
 51
357.5081244898
  0
ARC
  5
C8
330
1F
100
AcDbEntity
  8
0
  6
Continuous
 62
     8
370
    25
100
AcDbCircle
 10
-25.3938189174
 20
-6.23133081
 30
0.0
 40
0.1945474427926113
100
AcDbArc
 50
134.2504954434
 51
219.8165355679
  0
ARC
  5
C9
330
1F
100
AcDbEntity
  8
0
  6
Continuous
 62
     8
370
    25
100
AcDbCircle
 10
9.3727729498
 20
-26.2311099758
 30
0.0
 40
0.1865435260219633
100
AcDbArc
 50
14.5574148252
 51
78.1453749006
  0
ARC
  5
CA
330
1F
100
AcDbEntity
  8
0
  6
Continuous
 62
     8
370
    25
100
AcDbCircle
 10
-3.0989259832
 20
24.4165734675
 30
0.0
 40
0.1865435260219516
100
AcDbArc
 50
14.5574148252
 51
78.1453749006
  0
LWPOLYLINE
  5
D1
330
1B
100
AcDbEntity
 67
     1
  8
0
  6
Continuous
 62
     7
370
    25
100
AcDbPolyline
 90
        9
 70
   128
 43
0.0
 10
79.8774024665
 20
-10.0872170684
 10
79.8758333033
 20
-10.0883319107
 10
79.8742641225
 20
-10.0894467282
 10
79.8726949242
 20
-10.090561521
 10
79.8711257082
 20
-10.091676289
 10
79.8695564747
 20
-10.0927910323
 10
79.8679872235
 20
-10.0939057508
 10
79.8664179548
 20
-10.0950204445
 10
79.8648486684
 20
-10.0961351135
  0
LWPOLYLINE
  5
D3
330
1B
100
AcDbEntity
 67
     1
  8
0
  6
Continuous
 62
     7
370
    25
100
AcDbPolyline
 90
        9
 70
   128
 43
0.0
 10
79.7490327142
 20
-9.9330809361
 10
79.7505994275
 20
-9.9319680948
 10
79.7521661232
 20
-9.9308552287
 10
79.7537328014
 20
-9.929742338
 10
79.755299462
 20
-9.9286294225
 10
79.756866105
 20
-9.9275164823
 10
79.7584327304
 20
-9.9264035174
 10
79.7599993383
 20
-9.9252905277
 10
79.7615659287
 20
-9.9241775133
  0
LWPOLYLINE
  5
E5
330
1B
100
AcDbEntity
 67
     1
  8
0
  6
Continuous
 62
     7
370
    25
100
AcDbPolyline
 90
        9
 70
   128
 43
0.0
 10
79.8648486684
 20
-10.0961351135
 10
79.8552383121
 20
-10.1008192062
 10
79.8437732253
 20
-10.1025739875
 10
79.8306536296
 20
-10.1013688126
 10
79.8161086401
 20
-10.097224728
 10
79.8003922645
 20
-10.0902141044
 10
79.783778967
 20
-10.0804593725
 10
79.7665588754
 20
-10.0681308847
 10
79.7490327142
 20
-10.0534439407
  0
CIRCLE
  5
E9
330
1B
100
AcDbEntity
 67
     1
  8
0
  6
Continuous
 62
     7
370
    25
100
AcDbCircle
 10
-48.0
 20
-5.0
 30
0.0
 40
1.750000000000007
  0
CIRCLE
  5
EA
330
1B
100
AcDbEntity
 67
     1
  8
0
  6
Continuous
 62
     7
370
    25
100
AcDbCircle
 10
48.0
 20
-5.0
 30
0.0
 40
1.750000000000043
  0
LWPOLYLINE
  5
F0
330
1B
100
AcDbEntity
 67
     1
  8
0
  6
Continuous
 62
     7
370
    25
100
AcDbPolyline
 90
        9
 70
   128
 43
0.0
 10
46.8926382251
 20
-26.5789852179
 10
46.901681873
 20
-26.5958533327
 10
46.9105950487
 20
-26.61074162
 10
46.919249162
 20
-26.6234352871
 10
46.9275193604
 20
-26.633751203
 10
46.9352863302
 20
-26.6415405405
 10
46.9424380176
 20
-26.646690923
 10
46.9488712456
 20
-26.6491280463
 10
46.9544932021
 20
-26.64881675
  0
LINE
  5
F3
330
1B
100
AcDbEntity
 67
     1
  8
0
  6
Continuous
 62
     7
370
    25
100
AcDbLine
 10
44.7388274373
 20
-26.8489557633
 30
0.0
 11
-79.7569937465
 21
-10.0328237943
 31
0.0
  0
LINE
  5
F4
330
1B
100
AcDbEntity
 67
     1
  8
0
  6
Continuous
 62
     7
370
    25
100
AcDbLine
 10
-79.7569937465
 20
-10.0328237943
 30
0.0
 11
-79.730222093
 21
-9.834623697
 31
0.0
  0
LINE
  5
F5
330
1B
100
AcDbEntity
 67
     1
  8
0
  6
Continuous
 62
     7
370
    25
100
AcDbLine
 10
-79.730222093
 20
-9.834623697
 30
0.0
 11
-79.0013080447
 21
-9.9330809361
 31
0.0
  0
LINE
  5
F6
330
1B
100
AcDbEntity
 67
     1
  8
0
  6
Continuous
 62
     7
370
    25
100
AcDbLine
 10
-79.0280796982
 20
-10.1312810334
 30
0.0
 11
-79.0013080447
 21
-9.9330809361
 31
0.0
  0
LINE
  5
F7
330
1B
100
AcDbEntity
 67
     1
  8
0
  6
Continuous
 62
     7
370
    25
100
AcDbLine
 10
-79.0013080447
 20
-10.0534439407
 30
0.0
 11
-79.0013080447
 21
-9.9330809361
 31
0.0
  0
LINE
  5
F8
330
1B
100
AcDbEntity
 67
     1
  8
0
  6
Continuous
 62
     7
370
    25
100
AcDbLine
 10
79.8648486684
 20
-10.0961351135
 30
0.0
 11
79.7490327142
 21
-9.9330809361
 31
0.0
  0
LINE
  5
F9
330
1B
100
AcDbEntity
 67
     1
  8
0
  6
Continuous
 62
     7
370
    25
100
AcDbLine
 10
79.8774024665
 20
-10.0872170684
 30
0.0
 11
79.7615659287
 21
-9.9241775133
 31
0.0
  0
LINE
  5
FA
330
1B
100
AcDbEntity
 67
     1
  8
0
  6
Continuous
 62
     7
370
    25
100
AcDbLine
 10
79.7615659287
 20
-9.9241775133
 30
0.0
 11
79.9503375999
 21
-9.8581074284
 31
0.0
  0
LINE
  5
FB
330
1B
100
AcDbEntity
 67
     1
  8
0
  6
Continuous
 62
     7
370
    25
100
AcDbLine
 10
79.7615659287
 20
-9.9241775133
 30
0.0
 11
76.358103799
 21
-0.2
 31
0.0
  0
LINE
  5
FC
330
1B
100
AcDbEntity
 67
     1
  8
0
  6
Continuous
 62
     7
370
    25
100
AcDbLine
 10
76.358103799
 20
-0.2
 30
0.0
 11
76.5468754703
 21
-0.1339299151
 31
0.0
  0
LINE
  5
FD
330
1B
100
AcDbEntity
 67
     1
  8
0
  6
Continuous
 62
     7
370
    25
100
AcDbLine
 10
76.5468754703
 20
-0.1339299151
 30
0.0
 11
79.9503375999
 21
-9.8581074284
 31
0.0
  0
LINE
  5
FE
330
1B
100
AcDbEntity
 67
     1
  8
0
  6
Continuous
 62
     7
370
    25
100
AcDbLine
 10
-76.358103799
 20
-0.2
 30
0.0
 11
-79.730222093
 21
-9.834623697
 31
0.0
  0
LINE
  5
FF
330
1B
100
AcDbEntity
 67
     1
  8
0
  6
Continuous
 62
     7
370
    25
100
AcDbLine
 10
-79.730222093
 20
-9.834623697
 30
0.0
 11
-79.9189937642
 21
-9.7685536121
 31
0.0
  0
LINE
  5
100
330
1B
100
AcDbEntity
 67
     1
  8
0
  6
Continuous
 62
     7
370
    25
100
AcDbLine
 10
-79.9189937642
 20
-9.7685536121
 30
0.0
 11
-76.5468754703
 21
-0.1339299151
 31
0.0
  0
LINE
  5
101
330
1B
100
AcDbEntity
 67
     1
  8
0
  6
Continuous
 62
     7
370
    25
100
AcDbLine
 10
-76.358103799
 20
-0.2
 30
0.0
 11
-76.5468754703
 21
-0.1339299151
 31
0.0
  0
LINE
  5
102
330
1B
100
AcDbEntity
 67
     1
  8
0
  6
Continuous
 62
     7
370
    25
100
AcDbLine
 10
79.7490327142
 20
-10.0534439407
 30
0.0
 11
-79.0013080447
 21
-10.0534439407
 31
0.0
  0
LINE
  5
103
330
1B
100
AcDbEntity
 67
     1
  8
0
  6
Continuous
 62
     7
370
    25
100
AcDbLine
 10
-79.0013080447
 20
-9.9330809361
 30
0.0
 11
79.7490327142
 21
-9.9330809361
 31
0.0
  0
LINE
  5
104
330
1B
100
AcDbEntity
 67
     1
  8
0
  6
Continuous
 62
     7
370
    25
100
AcDbLine
 10
79.7490327142
 20
-10.0534439407
 30
0.0
 11
79.7490327142
 21
-9.9330809361
 31
0.0
  0
LINE
  5
105
330
1B
100
AcDbEntity
 67
     1
  8
0
  6
Continuous
 62
     7
370
    25
100
AcDbLine
 10
-76.358103799
 20
-0.2
 30
0.0
 11
-76.358103799
 21
0.0
 31
0.0
  0
LINE
  5
106
330
1B
100
AcDbEntity
 67
     1
  8
0
  6
Continuous
 62
     7
370
    25
100
AcDbLine
 10
76.358103799
 20
-0.2
 30
0.0
 11
76.358103799
 21
0.0
 31
0.0
  0
LINE
  5
107
330
1B
100
AcDbEntity
 67
     1
  8
0
  6
Continuous
 62
     7
370
    25
100
AcDbLine
 10
76.358103799
 20
-0.2
 30
0.0
 11
-76.358103799
 21
-0.2
 31
0.0
  0
LINE
  5
108
330
1B
100
AcDbEntity
 67
     1
  8
0
  6
Continuous
 62
     7
370
    25
100
AcDbLine
 10
-76.358103799
 20
0.0
 30
0.0
 11
76.358103799
 21
0.0
 31
0.0
  0
LINE
  5
109
330
1B
100
AcDbEntity
 67
     1
  8
0
  6
Continuous
 62
     7
370
    25
100
AcDbLine
 10
-79.0013080447
 20
-10.0534439407
 30
0.0
 11
44.7655990909
 21
-26.7711186706
 31
0.0
  0
ARC
  5
10A
330
1B
100
AcDbEntity
 67
     1
  8
0
  6
Continuous
 62
     7
370
    25
100
AcDbCircle
 10
-79.1539602118
 20
-10.0444625709
 30
0.0
 40
0.1529161506419666
100
AcDbArc
 50
325.4063802936
 51
356.6328546164
  0
ARC
  5
10B
330
1B
100
AcDbEntity
 67
     1
  8
0
  6
Continuous
 62
     7
370
    25
100
AcDbCircle
 10
79.7615659287
 20
-9.9241775133
 30
0.0
 40
0.2000000000000147
100
AcDbArc
 50
305.3930778656
 51
19.2900462192
  0
ARC
  5
10C
330
1B
100
AcDbEntity
 67
     1
  8
0
  6
Continuous
 62
     7
370
    25
100
AcDbCircle
 10
-76.358103799
 20
-0.2
 30
0.0
 40
0.1999999999999957
100
AcDbArc
 50
90.0
 51
160.7099537808
  0
ARC
  5
10D
330
1B
100
AcDbEntity
 67
     1
  8
0
  6
Continuous
 62
     7
370
    25
100
AcDbCircle
 10
76.358103799
 20
-0.2
 30
0.0
 40
0.1999999999999708
100
AcDbArc
 50
19.2900462192
 51
90.0
  0
ARC
  5
10E
330
1B
100
AcDbEntity
 67
     1
  8
0
  6
Continuous
 62
     7
370
    25
100
AcDbCircle
 10
-79.730222093
 20
-9.834623697
 30
0.0
 40
0.1999999999999905
100
AcDbArc
 50
160.7099537808
 51
262.3073957667
  0
ARC
  5
10F
330
1B
100
AcDbEntity
 67
     1
  8
0
  6
Continuous
 62
     7
370
    25
100
AcDbCircle
 10
44.6129469238
 20
-26.7621373008
 30
0.0
 40
0.1529161506423492
100
AcDbArc
 50
325.4063802937
 51
356.6328546164
  0
ARC
  5
110
330
1B
100
AcDbEntity
 67
     1
  8
0
  6
Continuous
 62
     7
370
    25
100
AcDbCircle
 10
45.4081187759
 20
-22.0143163356
 30
0.0
 40
4.800000000000098
100
AcDbArc
 50
262.3073957667
 51
288.0155371516
  0
ARC
  5
111
330
1B
100
AcDbEntity
 67
     1
  8
0
  6
Continuous
 62
     7
370
    25
100
AcDbCircle
 10
9.2296522241
 20
89.2289015105
 30
0.0
 40
121.7783525221823
100
AcDbArc
 50
288.0155371516
 51
305.3858446311
  0
ARC
  5
112
330
1B
100
AcDbEntity
 67
     1
  8
0
  6
Continuous
 62
     7
370
    25
100
AcDbCircle
 10
9.2296522241
 20
89.3492645152
 30
0.0
 40
121.9783525221806
100
AcDbArc
 50
288.0155371516
 51
305.3858446311
  0
ARC
  5
113
330
1B
100
AcDbEntity
 67
     1
  8
0
  6
Continuous
 62
     7
370
    25
100
AcDbCircle
 10
45.4081187759
 20
-21.893953331
 30
0.0
 40
4.999999999999931
100
AcDbArc
 50
262.3073957667
 51
288.0155371516
  0
VIEWPORT
  5
48C
330
1B
100
AcDbEntity
 67
     1
  8
0
100
AcDbViewport
 10
0.0
 20
0.0
 30
0.0
 40
205.6
 41
156.0
 68
     1
 69
     1
 12
-8.0703420252
 22
-5.1585394371
 13
0.0
 23
0.0
 14
10.0
 24
10.0
 15
10.0
 25
10.0
 16
0.0
 26
0.0
 36
1.0
 17
0.0
 27
0.0
 37
0.0
 42
50.0
 43
0.0
 44
0.0
 45
63.7122628619
 50
0.0
 51
0.0
 72
   100
 90
   557152
  1

281
     0
 71
     1
 74
     0
110
0.0
120
0.0
130
0.0
111
1.0
121
0.0
131
0.0
112
0.0
122
1.0
132
0.0
 79
     0
146
0.0
  0
ENDSEC
  0
SECTION
  2
OBJECTS
  0
DICTIONARY
  5
C
330
0
100
AcDbDictionary
281
     1
  3
ACAD_GROUP
350
D
  3
ACAD_LAYOUT
350
1A
  3
ACAD_MLINESTYLE
350
17
  3
ACAD_PLOTSETTINGS
350
19
  3
ACAD_PLOTSTYLENAME
350
E
  3
ACAD_SCALELIST
350
47
  0
DICTIONARY
  5
D
102
{ACAD_REACTORS
330
C
102
}
330
C
100
AcDbDictionary
281
     1
  0
DICTIONARY
  5
1A
102
{ACAD_REACTORS
330
C
102
}
330
C
100
AcDbDictionary
281
     1
  3
_Back
350
1E
  3
_Bottom
350
238
  3
_Dimetric
350
34E
  3
_Front
350
1B8
  3
_Isometric
350
291
  3
_Left
350
1F1
  3
_Right
350
171
  3
_Top
350
26
  3
_Trimetric
350
2F0
  3
ISO PERSP
350
3AF
  3
ISO PERSP BACK
350
40F
  3
Model
350
22
  0
DICTIONARY
  5
17
102
{ACAD_REACTORS
330
C
102
}
330
C
100
AcDbDictionary
281
     1
  3
Standard
350
18
  0
DICTIONARY
  5
19
102
{ACAD_REACTORS
330
C
102
}
330
C
100
AcDbDictionary
281
     1
  0
ACDBDICTIONARYWDFLT
  5
E
102
{ACAD_REACTORS
330
C
102
}
330
C
100
AcDbDictionary
281
     1
  3
Normal
350
F
100
AcDbDictionaryWithDefault
340
F
  0
DICTIONARY
  5
47
102
{ACAD_REACTORS
330
C
102
}
330
C
100
AcDbDictionary
281
     1
  3
A0
350
48
  3
A1
350
49
  3
A2
350
4A
  3
A3
350
4B
  3
A4
350
4C
  3
A5
350
4D
  3
A6
350
4E
  3
A7
350
4F
  3
A8
350
50
  3
A9
350
51
  3
B0
350
52
  3
B1
350
53
  3
B2
350
54
  3
B3
350
55
  3
B4
350
56
  3
B5
350
57
  3
B6
350
58
  3
B7
350
59
  3
B8
350
5A
  3
B9
350
5B
  3
C0
350
5C
  3
C1
350
5D
  3
C2
350
5E
  3
C3
350
5F
  3
C4
350
60
  3
C5
350
61
  3
C6
350
62
  3
C7
350
63
  3
C8
350
64
  3
C9
350
65
  3
D0
350
66
  3
D1
350
67
  3
D2
350
68
  0
LAYOUT
  5
1E
102
{ACAD_REACTORS
330
1A
102
}
330
1A
100
AcDbPlotSettings
  1

  2
none_device
  4
ISO_A4_(210.00_x_297.00_MM)
  6

 40
7.5
 41
20.0
 42
7.5
 43
20.0
 44
210.0
 45
297.0
 46
0.0
 47
0.0
 48
0.0
 49
0.0
140
0.0
141
0.0
142
1.0
143
0.6221470351
 70
   688
 72
     1
 73
     1
 74
     1
  7

 75
     0
147
1.607337082
148
79.930222093
149
26.893953331
100
AcDbLayout
  1
_Back
 70
     1
 71
     1
 10
-92.373162795
 20
-31.5600560943
 11
92.4045066307
 21
99.0908212775
 12
0.0
 22
0.0
 32
0.0
 14
-79.930222093
 24
-26.893953331
 34
0.0
 15
79.9615659287
 25
0.0
 35
0.0
146
0.0
 13
0.0
 23
0.0
 33
0.0
 16
1.0
 26
0.0
 36
0.0
 17
0.0
 27
1.0
 37
0.0
 76
     0
330
1B
331
48C
  0
LAYOUT
  5
238
102
{ACAD_REACTORS
330
1A
102
}
330
1A
100
AcDbPlotSettings
  1

  2
none_device
  4
ISO_A4_(210.00_x_297.00_MM)
  6

 40
7.5
 41
20.0
 42
7.5
 43
20.0
 44
210.0
 45
297.0
 46
0.0
 47
0.0
 48
0.0
 49
0.0
140
0.0
141
0.0
142
1.0
143
0.6221470351
 70
   688
 72
     1
 73
     1
 74
     1
  7

 75
     0
147
1.607337082
148
79.930222093
149
26.893953331
100
AcDbLayout
  1
_Bottom
 70
     1
 71
     6
 10
0.0
 20
0.0
 11
0.0
 21
0.0
 12
0.0
 22
0.0
 32
0.0
 14
0.0
 24
0.0
 34
0.0
 15
0.0
 25
0.0
 35
0.0
146
0.0
 13
0.0
 23
0.0
 33
0.0
 16
1.0
 26
0.0
 36
0.0
 17
0.0
 27
1.0
 37
0.0
 76
     0
330
237
331
496
  0
LAYOUT
  5
34E
102
{ACAD_REACTORS
330
1A
102
}
330
1A
100
AcDbPlotSettings
  1

  2
none_device
  4
ISO_A4_(210.00_x_297.00_MM)
  6

 40
7.5
 41
20.0
 42
7.5
 43
20.0
 44
210.0
 45
297.0
 46
0.0
 47
0.0
 48
0.0
 49
0.0
140
0.0
141
0.0
142
1.0
143
0.6221470351
 70
   688
 72
     1
 73
     1
 74
     1
  7

 75
     0
147
1.607337082
148
79.930222093
149
26.893953331
100
AcDbLayout
  1
_Dimetric
 70
     1
 71
     9
 10
0.0
 20
0.0
 11
0.0
 21
0.0
 12
0.0
 22
0.0
 32
0.0
 14
0.0
 24
0.0
 34
0.0
 15
0.0
 25
0.0
 35
0.0
146
0.0
 13
0.0
 23
0.0
 33
0.0
 16
1.0
 26
0.0
 36
0.0
 17
0.0
 27
1.0
 37
0.0
 76
     0
330
34D
331
49C
  0
LAYOUT
  5
1B8
102
{ACAD_REACTORS
330
1A
102
}
330
1A
100
AcDbPlotSettings
  1

  2
none_device
  4
ISO_A4_(210.00_x_297.00_MM)
  6

 40
7.5
 41
20.0
 42
7.5
 43
20.0
 44
210.0
 45
297.0
 46
0.0
 47
0.0
 48
0.0
 49
0.0
140
0.0
141
0.0
142
1.0
143
0.6221470351
 70
   688
 72
     1
 73
     1
 74
     1
  7

 75
     0
147
1.607337082
148
79.930222093
149
26.893953331
100
AcDbLayout
  1
_Front
 70
     1
 71
     4
 10
0.0
 20
0.0
 11
0.0
 21
0.0
 12
0.0
 22
0.0
 32
0.0
 14
0.0
 24
0.0
 34
0.0
 15
0.0
 25
0.0
 35
0.0
146
0.0
 13
0.0
 23
0.0
 33
0.0
 16
1.0
 26
0.0
 36
0.0
 17
0.0
 27
1.0
 37
0.0
 76
     0
330
1B7
331
492
  0
LAYOUT
  5
291
102
{ACAD_REACTORS
330
1A
102
}
330
1A
100
AcDbPlotSettings
  1

  2
none_device
  4
ISO_A4_(210.00_x_297.00_MM)
  6

 40
7.5
 41
20.0
 42
7.5
 43
20.0
 44
210.0
 45
297.0
 46
0.0
 47
0.0
 48
0.0
 49
0.0
140
0.0
141
0.0
142
1.0
143
0.6221470351
 70
   688
 72
     1
 73
     1
 74
     1
  7

 75
     0
147
1.607337082
148
79.930222093
149
26.893953331
100
AcDbLayout
  1
_Isometric
 70
     1
 71
     7
 10
0.0
 20
0.0
 11
0.0
 21
0.0
 12
0.0
 22
0.0
 32
0.0
 14
0.0
 24
0.0
 34
0.0
 15
0.0
 25
0.0
 35
0.0
146
0.0
 13
0.0
 23
0.0
 33
0.0
 16
1.0
 26
0.0
 36
0.0
 17
0.0
 27
1.0
 37
0.0
 76
     0
330
290
331
498
  0
LAYOUT
  5
1F1
102
{ACAD_REACTORS
330
1A
102
}
330
1A
100
AcDbPlotSettings
  1

  2
none_device
  4
ISO_A4_(210.00_x_297.00_MM)
  6

 40
7.5
 41
20.0
 42
7.5
 43
20.0
 44
210.0
 45
297.0
 46
0.0
 47
0.0
 48
0.0
 49
0.0
140
0.0
141
0.0
142
1.0
143
0.6221470351
 70
   688
 72
     1
 73
     1
 74
     1
  7

 75
     0
147
1.607337082
148
79.930222093
149
26.893953331
100
AcDbLayout
  1
_Left
 70
     1
 71
     5
 10
0.0
 20
0.0
 11
0.0
 21
0.0
 12
0.0
 22
0.0
 32
0.0
 14
0.0
 24
0.0
 34
0.0
 15
0.0
 25
0.0
 35
0.0
146
0.0
 13
0.0
 23
0.0
 33
0.0
 16
1.0
 26
0.0
 36
0.0
 17
0.0
 27
1.0
 37
0.0
 76
     0
330
1F0
331
494
  0
LAYOUT
  5
171
102
{ACAD_REACTORS
330
1A
102
}
330
1A
100
AcDbPlotSettings
  1

  2
none_device
  4
ISO_A4_(210.00_x_297.00_MM)
  6

 40
7.5
 41
20.0
 42
7.5
 43
20.0
 44
210.0
 45
297.0
 46
0.0
 47
0.0
 48
0.0
 49
0.0
140
0.0
141
0.0
142
1.0
143
0.6221470351
 70
   688
 72
     1
 73
     1
 74
     1
  7

 75
     0
147
1.607337082
148
79.930222093
149
26.893953331
100
AcDbLayout
  1
_Right
 70
     1
 71
     3
 10
0.0
 20
0.0
 11
0.0
 21
0.0
 12
0.0
 22
0.0
 32
0.0
 14
0.0
 24
0.0
 34
0.0
 15
0.0
 25
0.0
 35
0.0
146
0.0
 13
0.0
 23
0.0
 33
0.0
 16
1.0
 26
0.0
 36
0.0
 17
0.0
 27
1.0
 37
0.0
 76
     0
330
170
331
490
  0
LAYOUT
  5
26
102
{ACAD_REACTORS
330
1A
102
}
330
1A
100
AcDbPlotSettings
  1

  2
none_device
  4
ISO_A4_(210.00_x_297.00_MM)
  6

 40
7.5
 41
20.0
 42
7.5
 43
20.0
 44
210.0
 45
297.0
 46
0.0
 47
0.0
 48
0.0
 49
0.0
140
0.0
141
0.0
142
1.0
143
0.6221470351
 70
   688
 72
     1
 73
     1
 74
     1
  7

 75
     0
147
1.607337082
148
79.930222093
149
26.893953331
100
AcDbLayout
  1
_Top
 70
     1
 71
     2
 10
0.0
 20
0.0
 11
0.0
 21
0.0
 12
0.0
 22
0.0
 32
0.0
 14
0.0
 24
0.0
 34
0.0
 15
0.0
 25
0.0
 35
0.0
146
0.0
 13
0.0
 23
0.0
 33
0.0
 16
1.0
 26
0.0
 36
0.0
 17
0.0
 27
1.0
 37
0.0
 76
     0
330
23
331
48E
  0
LAYOUT
  5
2F0
102
{ACAD_REACTORS
330
1A
102
}
330
1A
100
AcDbPlotSettings
  1

  2
none_device
  4
ISO_A4_(210.00_x_297.00_MM)
  6

 40
7.5
 41
20.0
 42
7.5
 43
20.0
 44
210.0
 45
297.0
 46
0.0
 47
0.0
 48
0.0
 49
0.0
140
0.0
141
0.0
142
1.0
143
0.6221470351
 70
   688
 72
     1
 73
     1
 74
     1
  7

 75
     0
147
1.607337082
148
79.930222093
149
26.893953331
100
AcDbLayout
  1
_Trimetric
 70
     1
 71
     8
 10
0.0
 20
0.0
 11
0.0
 21
0.0
 12
0.0
 22
0.0
 32
0.0
 14
0.0
 24
0.0
 34
0.0
 15
0.0
 25
0.0
 35
0.0
146
0.0
 13
0.0
 23
0.0
 33
0.0
 16
1.0
 26
0.0
 36
0.0
 17
0.0
 27
1.0
 37
0.0
 76
     0
330
2EF
331
49A
  0
LAYOUT
  5
3AF
102
{ACAD_REACTORS
330
1A
102
}
330
1A
100
AcDbPlotSettings
  1

  2
none_device
  4
ISO_A4_(210.00_x_297.00_MM)
  6

 40
7.5
 41
20.0
 42
7.5
 43
20.0
 44
210.0
 45
297.0
 46
0.0
 47
0.0
 48
0.0
 49
0.0
140
0.0
141
0.0
142
1.0
143
0.6221470351
 70
   688
 72
     1
 73
     1
 74
     1
  7

 75
     0
147
1.607337082
148
79.930222093
149
26.893953331
100
AcDbLayout
  1
ISO PERSP
 70
     1
 71
    10
 10
0.0
 20
0.0
 11
0.0
 21
0.0
 12
0.0
 22
0.0
 32
0.0
 14
0.0
 24
0.0
 34
0.0
 15
0.0
 25
0.0
 35
0.0
146
0.0
 13
0.0
 23
0.0
 33
0.0
 16
1.0
 26
0.0
 36
0.0
 17
0.0
 27
1.0
 37
0.0
 76
     0
330
3AE
331
49E
  0
LAYOUT
  5
40F
102
{ACAD_REACTORS
330
1A
102
}
330
1A
100
AcDbPlotSettings
  1

  2
none_device
  4
ISO_A4_(210.00_x_297.00_MM)
  6

 40
7.5
 41
20.0
 42
7.5
 43
20.0
 44
210.0
 45
297.0
 46
0.0
 47
0.0
 48
0.0
 49
0.0
140
0.0
141
0.0
142
1.0
143
0.6221470351
 70
   688
 72
     1
 73
     1
 74
     1
  7

 75
     0
147
1.607337082
148
79.930222093
149
26.893953331
100
AcDbLayout
  1
ISO PERSP BACK
 70
     1
 71
    11
 10
0.0
 20
0.0
 11
0.0
 21
0.0
 12
0.0
 22
0.0
 32
0.0
 14
0.0
 24
0.0
 34
0.0
 15
0.0
 25
0.0
 35
0.0
146
0.0
 13
0.0
 23
0.0
 33
0.0
 16
1.0
 26
0.0
 36
0.0
 17
0.0
 27
1.0
 37
0.0
 76
     0
330
40E
331
4A0
  0
LAYOUT
  5
22
102
{ACAD_REACTORS
330
1A
102
}
330
1A
100
AcDbPlotSettings
  1

  2
none_device
  4
ANSI_A_(11.00_x_8.50_Inches)
  6

 40
6.35
 41
19.05
 42
6.35000508
 43
19.05000254
 44
279.4
 45
215.9
 46
160.9657523441
 47
106.5519099142
 48
0.0
 49
0.0
140
0.0
141
0.0
142
0.134719748
143
1.0
 70
  1696
 72
     0
 73
     0
 74
     0
  7

 75
     0
147
0.0179189148
148
-1300.4909072572
149
0.0
100
AcDbLayout
  1
Model
 70
     1
 71
     0
 10
0.0
 20
0.0
 11
420.0
 21
297.0
 12
0.0
 22
0.0
 32
0.0
 14
-25.6998128782
 24
-36.39004084
 34
0.0
 15
9.5591288278
 25
26.0729619658
 35
0.0
146
0.0
 13
0.0
 23
0.0
 33
0.0
 16
1.0
 26
0.0
 36
0.0
 17
0.0
 27
1.0
 37
0.0
 76
     0
330
1F
331
29
  0
MLINESTYLE
  5
18
102
{ACAD_REACTORS
330
17
102
}
330
17
100
AcDbMlineStyle
  2
Standard
 70
     0
  3

 62
   256
 51
90.0
 52
90.0
 71
     2
 49
0.5
 62
   256
  6
BYLAYER
 49
-0.5
 62
   256
  6
BYLAYER
  0
ACDBPLACEHOLDER
  5
F
102
{ACAD_REACTORS
330
E
102
}
330
E
  0
SCALE
  5
48
102
{ACAD_REACTORS
330
47
102
}
330
47
100
AcDbScale
 70
     0
300
1:1
140
1.0
141
1.0
290
     1
  0
SCALE
  5
49
102
{ACAD_REACTORS
330
47
102
}
330
47
100
AcDbScale
 70
     0
300
1:2
140
1.0
141
2.0
290
     0
  0
SCALE
  5
4A
102
{ACAD_REACTORS
330
47
102
}
330
47
100
AcDbScale
 70
     0
300
1:4
140
1.0
141
4.0
290
     0
  0
SCALE
  5
4B
102
{ACAD_REACTORS
330
47
102
}
330
47
100
AcDbScale
 70
     0
300
1:5
140
1.0
141
5.0
290
     0
  0
SCALE
  5
4C
102
{ACAD_REACTORS
330
47
102
}
330
47
100
AcDbScale
 70
     0
300
1:8
140
1.0
141
8.0
290
     0
  0
SCALE
  5
4D
102
{ACAD_REACTORS
330
47
102
}
330
47
100
AcDbScale
 70
     0
300
1:10
140
1.0
141
10.0
290
     0
  0
SCALE
  5
4E
102
{ACAD_REACTORS
330
47
102
}
330
47
100
AcDbScale
 70
     0
300
1:16
140
1.0
141
16.0
290
     0
  0
SCALE
  5
4F
102
{ACAD_REACTORS
330
47
102
}
330
47
100
AcDbScale
 70
     0
300
1:20
140
1.0
141
20.0
290
     0
  0
SCALE
  5
50
102
{ACAD_REACTORS
330
47
102
}
330
47
100
AcDbScale
 70
     0
300
1:30
140
1.0
141
30.0
290
     0
  0
SCALE
  5
51
102
{ACAD_REACTORS
330
47
102
}
330
47
100
AcDbScale
 70
     0
300
1:40
140
1.0
141
40.0
290
     0
  0
SCALE
  5
52
102
{ACAD_REACTORS
330
47
102
}
330
47
100
AcDbScale
 70
     0
300
1:50
140
1.0
141
50.0
290
     0
  0
SCALE
  5
53
102
{ACAD_REACTORS
330
47
102
}
330
47
100
AcDbScale
 70
     0
300
1:100
140
1.0
141
100.0
290
     0
  0
SCALE
  5
54
102
{ACAD_REACTORS
330
47
102
}
330
47
100
AcDbScale
 70
     0
300
2:1
140
2.0
141
1.0
290
     0
  0
SCALE
  5
55
102
{ACAD_REACTORS
330
47
102
}
330
47
100
AcDbScale
 70
     0
300
4:1
140
4.0
141
1.0
290
     0
  0
SCALE
  5
56
102
{ACAD_REACTORS
330
47
102
}
330
47
100
AcDbScale
 70
     0
300
8:1
140
8.0
141
1.0
290
     0
  0
SCALE
  5
57
102
{ACAD_REACTORS
330
47
102
}
330
47
100
AcDbScale
 70
     0
300
10:1
140
10.0
141
1.0
290
     0
  0
SCALE
  5
58
102
{ACAD_REACTORS
330
47
102
}
330
47
100
AcDbScale
 70
     0
300
100:1
140
100.0
141
1.0
290
     0
  0
SCALE
  5
59
102
{ACAD_REACTORS
330
47
102
}
330
47
100
AcDbScale
 70
     0
300
1/128" = 1'-0"
140
0.0078125
141
12.0
290
     0
  0
SCALE
  5
5A
102
{ACAD_REACTORS
330
47
102
}
330
47
100
AcDbScale
 70
     0
300
1/64" = 1'-0"
140
0.015625
141
12.0
290
     0
  0
SCALE
  5
5B
102
{ACAD_REACTORS
330
47
102
}
330
47
100
AcDbScale
 70
     0
300
1/32" = 1'-0"
140
0.03125
141
12.0
290
     0
  0
SCALE
  5
5C
102
{ACAD_REACTORS
330
47
102
}
330
47
100
AcDbScale
 70
     0
300
1/16" = 1'-0"
140
0.0625
141
12.0
290
     0
  0
SCALE
  5
5D
102
{ACAD_REACTORS
330
47
102
}
330
47
100
AcDbScale
 70
     0
300
3/32" = 1'-0"
140
0.09375
141
12.0
290
     0
  0
SCALE
  5
5E
102
{ACAD_REACTORS
330
47
102
}
330
47
100
AcDbScale
 70
     0
300
1/8" = 1'-0"
140
0.125
141
12.0
290
     0
  0
SCALE
  5
5F
102
{ACAD_REACTORS
330
47
102
}
330
47
100
AcDbScale
 70
     0
300
3/16" = 1'-0"
140
0.1875
141
12.0
290
     0
  0
SCALE
  5
60
102
{ACAD_REACTORS
330
47
102
}
330
47
100
AcDbScale
 70
     0
300
1/4" = 1'-0"
140
0.25
141
12.0
290
     0
  0
SCALE
  5
61
102
{ACAD_REACTORS
330
47
102
}
330
47
100
AcDbScale
 70
     0
300
3/8" = 1'-0"
140
0.375
141
12.0
290
     0
  0
SCALE
  5
62
102
{ACAD_REACTORS
330
47
102
}
330
47
100
AcDbScale
 70
     0
300
1/2" = 1'-0"
140
0.5
141
12.0
290
     0
  0
SCALE
  5
63
102
{ACAD_REACTORS
330
47
102
}
330
47
100
AcDbScale
 70
     0
300
3/4" = 1'-0"
140
0.75
141
12.0
290
     0
  0
SCALE
  5
64
102
{ACAD_REACTORS
330
47
102
}
330
47
100
AcDbScale
 70
     0
300
1" = 1'-0"
140
1.0
141
12.0
290
     0
  0
SCALE
  5
65
102
{ACAD_REACTORS
330
47
102
}
330
47
100
AcDbScale
 70
     0
300
1-1/2" = 1'-0"
140
1.5
141
12.0
290
     0
  0
SCALE
  5
66
102
{ACAD_REACTORS
330
47
102
}
330
47
100
AcDbScale
 70
     0
300
3" = 1'-0"
140
3.0
141
12.0
290
     0
  0
SCALE
  5
67
102
{ACAD_REACTORS
330
47
102
}
330
47
100
AcDbScale
 70
     0
300
6" = 1'-0"
140
6.0
141
12.0
290
     0
  0
SCALE
  5
68
102
{ACAD_REACTORS
330
47
102
}
330
47
100
AcDbScale
 70
     0
300
1'-0" = 1'-0"
140
12.0
141
12.0
290
     0
  0
ENDSEC
  0
EOF
